  0
SECTION
  2
HEADER
  9
$ACADVER
  1
AC1015
  9
$ACADMAINTVER
 70
     6
  9
$DWGCODEPAGE
  3
ANSI_1252
  9
$INSBASE
 10
0.0
 20
0.0
 30
0.0
  9
$EXTMIN
 10
0.0
 20
0.0
 30
0.0
  9
$EXTMAX
 10
17.0
 20
11.0
 30
0.0
  9
$LIMMIN
 10
0.0
 20
0.0
  9
$LIMMAX
 10
17.0
 20
11.0
  9
$ORTHOMODE
 70
     0
  9
$REGENMODE
 70
     1
  9
$FILLMODE
 70
     1
  9
$QTEXTMODE
 70
     0
  9
$MIRRTEXT
 70
     1
  9
$LTSCALE
 40
1.0
  9
$ATTMODE
 70
     1
  9
$TEXTSIZE
 40
0.125
  9
$TRACEWID
 40
0.05
  9
$TEXTSTYLE
  7
Standard
  9
$CLAYER
  8
0
  9
$CELTYPE
  6
ByLayer
  9
$CECOLOR
 62
   256
  9
$CELTSCALE
 40
1.0
  9
$DISPSILH
 70
     0
  9
$DIMSCALE
 40
1.0
  9
$DIMASZ
 40
0.13
  9
$DIMEXO
 40
0.05
  9
$DIMDLI
 40
0.38
  9
$DIMRND
 40
0.0
  9
$DIMDLE
 40
0.0
  9
$DIMEXE
 40
0.125
  9
$DIMTP
 40
0.0
  9
$DIMTM
 40
0.0
  9
$DIMTXT
 40
0.125
  9
$DIMCEN
 40
0.09
  9
$DIMTSZ
 40
0.0
  9
$DIMTOL
 70
     0
  9
$DIMLIM
 70
     0
  9
$DIMTIH
 70
     1
  9
$DIMTOH
 70
     1
  9
$DIMSE1
 70
     0
  9
$DIMSE2
 70
     0
  9
$DIMTAD
 70
     0
  9
$DIMZIN
 70
     0
  9
$DIMBLK
  1

  9
$DIMASO
 70
     1
  9
$DIMSHO
 70
     1
  9
$DIMPOST
  1

  9
$DIMAPOST
  1

  9
$DIMALT
 70
     0
  9
$DIMALTD
 70
     2
  9
$DIMALTF
 40
25.4
  9
$DIMLFAC
 40
12.0
  9
$DIMTOFL
 70
     0
  9
$DIMTVP
 40
0.0
  9
$DIMTIX
 70
     0
  9
$DIMSOXD
 70
     0
  9
$DIMSAH
 70
     0
  9
$DIMBLK1
  1

  9
$DIMBLK2
  1

  9
$DIMSTYLE
  2
Standard
  9
$DIMCLRD
 70
     0
  9
$DIMCLRE
 70
     0
  9
$DIMCLRT
 70
     0
  9
$DIMTFAC
 40
1.0
  9
$DIMGAP
 40
0.06
  9
$DIMJUST
 70
     0
  9
$DIMSD1
 70
     0
  9
$DIMSD2
 70
     0
  9
$DIMTOLJ
 70
     1
  9
$DIMTZIN
 70
     0
  9
$DIMALTZ
 70
     0
  9
$DIMALTTZ
 70
     0
  9
$DIMUPT
 70
     0
  9
$DIMDEC
 70
     3
  9
$DIMTDEC
 70
     3
  9
$DIMALTU
 70
     2
  9
$DIMALTTD
 70
     2
  9
$DIMTXSTY
  7
Standard
  9
$DIMAUNIT
 70
     0
  9
$DIMADEC
 70
     2
  9
$DIMALTRND
 40
0.0
  9
$DIMAZIN
 70
     0
  9
$DIMDSEP
 70
    46
  9
$DIMATFIT
 70
     3
  9
$DIMFRAC
 70
     0
  9
$DIMLDRBLK
  1

  9
$DIMLUNIT
 70
     2
  9
$DIMLWD
 70
    -2
  9
$DIMLWE
 70
    -2
  9
$DIMTMOVE
 70
     0
  9
$LUNITS
 70
     2
  9
$LUPREC
 70
     3
  9
$SKETCHINC
 40
0.1
  9
$FILLETRAD
 40
0.5
  9
$AUNITS
 70
     0
  9
$AUPREC
 70
     2
  9
$MENU
  1
.
  9
$ELEVATION
 40
0.0
  9
$PELEVATION
 40
0.0
  9
$THICKNESS
 40
0.0
  9
$LIMCHECK
 70
     0
  9
$CHAMFERA
 40
0.5
  9
$CHAMFERB
 40
0.5
  9
$CHAMFERC
 40
1.0
  9
$CHAMFERD
 40
0.0
  9
$SKPOLY
 70
     0
  9
$TDCREATE
 40
2456503.623426354
  9
$TDUCREATE
 40
2456503.831759688
  9
$TDUPDATE
 40
2456503.623426366
  9
$TDUUPDATE
 40
2456503.831759699
  9
$TDINDWG
 40
0.0000000116
  9
$TDUSRTIMER
 40
0.0000000116
  9
$USRTIMER
 70
     1
  9
$ANGBASE
 50
0.0
  9
$ANGDIR
 70
     0
  9
$PDMODE
 70
     0
  9
$PDSIZE
 40
-1.0
  9
$PLINEWID
 40
0.0
  9
$SPLFRAME
 70
     0
  9
$SPLINETYPE
 70
     6
  9
$SPLINESEGS
 70
     8
  9
$HANDSEED
  5
47D
  9
$SURFTAB1
 70
     6
  9
$SURFTAB2
 70
     6
  9
$SURFTYPE
 70
     6
  9
$SURFU
 70
     6
  9
$SURFV
 70
     6
  9
$UCSBASE
  2

  9
$UCSNAME
  2

  9
$UCSORG
 10
0.0
 20
0.0
 30
0.0
  9
$UCSXDIR
 10
1.0
 20
0.0
 30
0.0
  9
$UCSYDIR
 10
0.0
 20
1.0
 30
0.0
  9
$UCSORTHOREF
  2

  9
$UCSORTHOVIEW
 70
     0
  9
$UCSORGTOP
 10
0.0
 20
0.0
 30
0.0
  9
$UCSORGBOTTOM
 10
0.0
 20
0.0
 30
0.0
  9
$UCSORGLEFT
 10
0.0
 20
0.0
 30
0.0
  9
$UCSORGRIGHT
 10
0.0
 20
0.0
 30
0.0
  9
$UCSORGFRONT
 10
0.0
 20
0.0
 30
0.0
  9
$UCSORGBACK
 10
0.0
 20
0.0
 30
0.0
  9
$PUCSBASE
  2

  9
$PUCSNAME
  2

  9
$PUCSORG
 10
0.0
 20
0.0
 30
0.0
  9
$PUCSXDIR
 10
1.0
 20
0.0
 30
0.0
  9
$PUCSYDIR
 10
0.0
 20
1.0
 30
0.0
  9
$PUCSORTHOREF
  2

  9
$PUCSORTHOVIEW
 70
     0
  9
$PUCSORGTOP
 10
0.0
 20
0.0
 30
0.0
  9
$PUCSORGBOTTOM
 10
0.0
 20
0.0
 30
0.0
  9
$PUCSORGLEFT
 10
0.0
 20
0.0
 30
0.0
  9
$PUCSORGRIGHT
 10
0.0
 20
0.0
 30
0.0
  9
$PUCSORGFRONT
 10
0.0
 20
0.0
 30
0.0
  9
$PUCSORGBACK
 10
0.0
 20
0.0
 30
0.0
  9
$USERI1
 70
     0
  9
$USERI2
 70
     0
  9
$USERI3
 70
     0
  9
$USERI4
 70
     0
  9
$USERI5
 70
     0
  9
$USERR1
 40
0.0
  9
$USERR2
 40
0.0
  9
$USERR3
 40
0.0
  9
$USERR4
 40
0.0
  9
$USERR5
 40
0.0
  9
$WORLDVIEW
 70
     1
  9
$SHADEDGE
 70
     3
  9
$SHADEDIF
 70
    70
  9
$TILEMODE
 70
     1
  9
$MAXACTVP
 70
    64
  9
$PINSBASE
 10
0.0
 20
0.0
 30
0.0
  9
$PLIMCHECK
 70
     0
  9
$PEXTMIN
 10
1.0000000000E+20
 20
1.0000000000E+20
 30
1.0000000000E+20
  9
$PEXTMAX
 10
-1.0000000000E+20
 20
-1.0000000000E+20
 30
-1.0000000000E+20
  9
$PLIMMIN
 10
0.0
 20
0.0
  9
$PLIMMAX
 10
12.0
 20
9.0
  9
$UNITMODE
 70
     0
  9
$VISRETAIN
 70
     1
  9
$PLINEGEN
 70
     0
  9
$PSLTSCALE
 70
     1
  9
$TREEDEPTH
 70
  3020
  9
$CMLSTYLE
  2
Standard
  9
$CMLJUST
 70
     0
  9
$CMLSCALE
 40
1.0
  9
$PROXYGRAPHICS
 70
     1
  9
$MEASUREMENT
 70
     0
  9
$CELWEIGHT
370
    -1
  9
$ENDCAPS
280
     0
  9
$JOINSTYLE
280
     0
  9
$LWDISPLAY
290
     1
  9
$INSUNITS
 70
     1
  9
$HYPERLINKBASE
  1

  9
$STYLESHEET
  1

  9
$XEDIT
290
     1
  9
$CEPSNTYPE
380
     0
  9
$PSTYLEMODE
290
     1
  9
$FINGERPRINTGUID
  2
{0C880C99-913E-4659-9E9E-F8EF99AD51AA}
  9
$VERSIONGUID
  2
{FAEB1C32-E019-11D5-929B-00C0DF256EC4}
  9
$EXTNAMES
290
     1
  9
$PSVPSCALE
 40
0.0
  9
$OLESTARTUP
290
     0
  0
ENDSEC
  0
SECTION
  2
CLASSES
  0
CLASS
  1
ACDBDICTIONARYWDFLT
  2
AcDbDictionaryWithDefault
  3
ObjectDBX Classes
 90
        0
280
     0
281
     0
  0
CLASS
  1
VISUALSTYLE
  2
AcDbVisualStyle
  3
ObjectDBX Classes
 90
     4095
280
     0
281
     0
  0
CLASS
  1
MATERIAL
  2
AcDbMaterial
  3
ObjectDBX Classes
 90
     1153
280
     0
281
     0
  0
CLASS
  1
DICTIONARYVAR
  2
AcDbDictionaryVar
  3
ObjectDBX Classes
 90
        0
280
     0
281
     0
  0
CLASS
  1
ACDBPLACEHOLDER
  2
AcDbPlaceHolder
  3
ObjectDBX Classes
 90
        0
280
     0
281
     0
  0
CLASS
  1
LAYOUT
  2
AcDbLayout
  3
ObjectDBX Classes
 90
        0
280
     0
281
     0
  0
ENDSEC
  0
SECTION
  2
TABLES
  0
TABLE
  2
VPORT
  5
8
330
0
100
AcDbSymbolTable
 70
     1
  0
VPORT
  5
29
330
8
100
AcDbSymbolTableRecord
100
AcDbViewportTableRecord
  2
*Active
 70
     0
 10
0.0
 20
0.0
 11
1.0
 21
1.0
 12
8.5
 22
5.5
 13
0.0
 23
0.0
 14
0.5
 24
0.5
 15
0.5
 25
0.5
 16
0.0
 26
0.0
 36
1.0
 17
0.0
 27
0.0
 37
0.0
 40
11.0
 41
1.5454545455
 42
50.0
 43
0.0
 44
0.0
 50
0.0
 51
0.0
 71
     0
 72
  2000
 73
     1
 74
     3
 75
     0
 76
     0
 77
     0
 78
     0
281
     0
 65
     1
110
0.0
120
0.0
130
0.0
111
1.0
121
0.0
131
0.0
112
0.0
122
1.0
132
0.0
 79
     0
146
0.0
  0
ENDTAB
  0
TABLE
  2
LTYPE
  5
5
330
0
100
AcDbSymbolTable
 70
     6
  0
LTYPE
  5
14
330
5
100
AcDbSymbolTableRecord
100
AcDbLinetypeTableRecord
  2
ByBlock
 70
     0
  3

 72
    65
 73
     0
 40
0.0
  0
LTYPE
  5
15
330
5
100
AcDbSymbolTableRecord
100
AcDbLinetypeTableRecord
  2
ByLayer
 70
     0
  3

 72
    65
 73
     0
 40
0.0
  0
LTYPE
  5
16
330
5
100
AcDbSymbolTableRecord
100
AcDbLinetypeTableRecord
  2
Continuous
 70
     0
  3
Solid line
 72
    65
 73
     0
 40
0.0
  0
LTYPE
  5
3F
330
5
100
AcDbSymbolTableRecord
100
AcDbLinetypeTableRecord
  2
HIDDEN
 70
     0
  3
Hidden __ __ __ __ __ __ __ __ __ __ __ __ __ __
 72
    65
 73
     2
 40
0.075
 49
0.05
 74
     0
 49
-0.025
 74
     0
  0
LTYPE
  5
40
330
5
100
AcDbSymbolTableRecord
100
AcDbLinetypeTableRecord
  2
PHANTOM
 70
     0
  3
Phantom ______  __  __  ______  __  __  ______
 72
    65
 73
     6
 40
0.5
 49
0.25
 74
     0
 49
-0.05
 74
     0
 49
0.05
 74
     0
 49
-0.05
 74
     0
 49
0.05
 74
     0
 49
-0.05
 74
     0
  0
LTYPE
  5
41
330
5
100
AcDbSymbolTableRecord
100
AcDbLinetypeTableRecord
  2
CENTER
 70
     0
  3
Center ____ _ ____ _ ____ _ ____ _ ____ _ ____
 72
    65
 73
     4
 40
0.4
 49
0.25
 74
     0
 49
-0.05
 74
     0
 49
0.05
 74
     0
 49
-0.05
 74
     0
  0
LTYPE
  5
42
330
5
100
AcDbSymbolTableRecord
100
AcDbLinetypeTableRecord
  2
CENTERX2
 70
     0
  3
Center (2x) ________  __  ________  __  _____
 72
    65
 73
     4
 40
0.8
 49
0.5
 74
     0
 49
-0.1
 74
     0
 49
0.1
 74
     0
 49
-0.1
 74
     0
  0
LTYPE
  5
43
330
5
100
AcDbSymbolTableRecord
100
AcDbLinetypeTableRecord
  2
DOT2
 70
     0
  3
Dot (.5x) ........................................
 72
    65
 73
     2
 40
0.025
 49
0.0
 74
     0
 49
-0.025
 74
     0
  0
ENDTAB
  0
TABLE
  2
LAYER
  5
2
330
0
100
AcDbSymbolTable
 70
     1
  0
LAYER
  5
10
330
2
100
AcDbSymbolTableRecord
100
AcDbLayerTableRecord
  2
0
 70
     0
 62
     7
  6
Continuous
370
    -3
390
F
  0
ENDTAB
  0
TABLE
  2
STYLE
  5
3
330
0
100
AcDbSymbolTable
 70
     1
  0
STYLE
  5
11
330
3
100
AcDbSymbolTableRecord
100
AcDbTextStyleTableRecord
  2
Standard
 70
     0
 40
0.0
 41
1.0
 50
0.0
 71
     0
 42
0.2
  3
txt
  4

  0
ENDTAB
  0
TABLE
  2
VIEW
  5
6
330
0
100
AcDbSymbolTable
 70
     0
  0
ENDTAB
  0
TABLE
  2
UCS
  5
7
330
0
100
AcDbSymbolTable
 70
     0
  0
ENDTAB
  0
TABLE
  2
APPID
  5
9
330
0
100
AcDbSymbolTable
 70
     1
  0
APPID
  5
12
330
9
100
AcDbSymbolTableRecord
100
AcDbRegAppTableRecord
  2
ACAD
 70
     0
  0
ENDTAB
  0
TABLE
  2
DIMSTYLE
  5
A
330
0
100
AcDbSymbolTable
 70
     1
100
AcDbDimStyleTable
  0
DIMSTYLE
105
27
330
A
100
AcDbSymbolTableRecord
100
AcDbDimStyleTableRecord
  2
Standard
 70
     0
340
11
  0
ENDTAB
  0
TABLE
  2
BLOCK_RECORD
  5
1
330
0
100
AcDbSymbolTable
 70
     6
  0
BLOCK_RECORD
  5
1F
330
1
100
AcDbSymbolTableRecord
100
AcDbBlockTableRecord
  2
*Model_Space
340
22
  0
BLOCK_RECORD
  5
1B
330
1
100
AcDbSymbolTableRecord
100
AcDbBlockTableRecord
  2
*Paper_Space
340
1E
  0
BLOCK_RECORD
  5
23
330
1
100
AcDbSymbolTableRecord
100
AcDbBlockTableRecord
  2
*Paper_Space0
340
26
  0
BLOCK_RECORD
  5
3DC
330
1
100
AcDbSymbolTableRecord
100
AcDbBlockTableRecord
  2
SW_CENTERMARKSYMBOL_0
340
0
102
{BLKREFS
331
3E7
102
}
  0
BLOCK_RECORD
  5
3E8
330
1
100
AcDbSymbolTableRecord
100
AcDbBlockTableRecord
  2
SW_CENTERMARKSYMBOL_1
340
0
102
{BLKREFS
331
3F3
102
}
  0
BLOCK_RECORD
  5
3F4
330
1
100
AcDbSymbolTableRecord
100
AcDbBlockTableRecord
  2
SW_CENTERMARKSYMBOL_2
340
0
102
{BLKREFS
331
3FF
102
}
  0
BLOCK_RECORD
  5
400
330
1
100
AcDbSymbolTableRecord
100
AcDbBlockTableRecord
  2
SW_CENTERMARKSYMBOL_3
340
0
102
{BLKREFS
331
40B
102
}
  0
BLOCK_RECORD
  5
40C
330
1
100
AcDbSymbolTableRecord
100
AcDbBlockTableRecord
  2
SW_CENTERMARKSYMBOL_4
340
0
102
{BLKREFS
331
417
102
}
  0
ENDTAB
  0
ENDSEC
  0
SECTION
  2
BLOCKS
  0
BLOCK
  5
20
330
1F
100
AcDbEntity
  8
0
100
AcDbBlockBegin
  2
*Model_Space
 70
     0
 10
0.0
 20
0.0
 30
0.0
  3
*Model_Space
  1

  0
ENDBLK
  5
21
330
1F
100
AcDbEntity
  8
0
100
AcDbBlockEnd
  0
BLOCK
  5
1C
330
1B
100
AcDbEntity
 67
     1
  8
0
100
AcDbBlockBegin
  2
*Paper_Space
 70
     0
 10
0.0
 20
0.0
 30
0.0
  3
*Paper_Space
  1

  0
ENDBLK
  5
1D
330
1B
100
AcDbEntity
 67
     1
  8
0
100
AcDbBlockEnd
  0
BLOCK
  5
24
330
23
100
AcDbEntity
  8
0
100
AcDbBlockBegin
  2
*Paper_Space0
 70
     0
 10
0.0
 20
0.0
 30
0.0
  3
*Paper_Space0
  1

  0
ENDBLK
  5
25
330
23
100
AcDbEntity
  8
0
100
AcDbBlockEnd
  0
BLOCK
  5
3DD
330
3DC
100
AcDbEntity
  8
0
100
AcDbBlockBegin
  2
SW_CENTERMARKSYMBOL_0
 70
     0
 10
0.0
 20
0.0
 30
0.0
  3
SW_CENTERMARKSYMBOL_0
  1

  0
LINE
  5
3DF
330
3DC
100
AcDbEntity
  8
0
  6
Continuous
 62
     0
370
     0
100
AcDbLine
 10
0.0
 20
0.0
 30
0.0
 11
0.0
 21
0.0125
 31
0.0
  0
LINE
  5
3E0
330
3DC
100
AcDbEntity
  8
0
  6
Continuous
 62
     0
370
     0
100
AcDbLine
 10
0.0
 20
0.0
 30
0.0
 11
-0.0125
 21
0.0
 31
0.0
  0
LINE
  5
3E1
330
3DC
100
AcDbEntity
  8
0
  6
Continuous
 62
     0
370
     0
100
AcDbLine
 10
0.0
 20
0.0
 30
0.0
 11
0.0
 21
-0.0125
 31
0.0
  0
LINE
  5
3E2
330
3DC
100
AcDbEntity
  8
0
  6
Continuous
 62
     0
370
     0
100
AcDbLine
 10
0.0
 20
0.0
 30
0.0
 11
0.0125
 21
0.0
 31
0.0
  0
LINE
  5
3E3
330
3DC
100
AcDbEntity
  8
0
  6
Continuous
 62
     0
370
     0
100
AcDbLine
 10
0.0
 20
0.025
 30
0.0
 11
0.0
 21
0.2175
 31
0.0
  0
LINE
  5
3E4
330
3DC
100
AcDbEntity
  8
0
  6
Continuous
 62
     0
370
     0
100
AcDbLine
 10
-0.025
 20
0.0
 30
0.0
 11
-0.2175
 21
0.0
 31
0.0
  0
LINE
  5
3E5
330
3DC
100
AcDbEntity
  8
0
  6
Continuous
 62
     0
370
     0
100
AcDbLine
 10
0.0
 20
-0.025
 30
0.0
 11
0.0
 21
-0.2175
 31
0.0
  0
LINE
  5
3E6
330
3DC
100
AcDbEntity
  8
0
  6
Continuous
 62
     0
370
     0
100
AcDbLine
 10
0.025
 20
0.0
 30
0.0
 11
0.2175
 21
0.0
 31
0.0
  0
ENDBLK
  5
3DE
330
3DC
100
AcDbEntity
  8
0
100
AcDbBlockEnd
  0
BLOCK
  5
3E9
330
3E8
100
AcDbEntity
  8
0
100
AcDbBlockBegin
  2
SW_CENTERMARKSYMBOL_1
 70
     0
 10
0.0
 20
0.0
 30
0.0
  3
SW_CENTERMARKSYMBOL_1
  1

  0
LINE
  5
3EB
330
3E8
100
AcDbEntity
  8
0
  6
Continuous
 62
     0
370
     0
100
AcDbLine
 10
0.0
 20
0.0
 30
0.0
 11
0.0
 21
0.0125
 31
0.0
  0
LINE
  5
3EC
330
3E8
100
AcDbEntity
  8
0
  6
Continuous
 62
     0
370
     0
100
AcDbLine
 10
0.0
 20
0.0
 30
0.0
 11
-0.0125
 21
0.0
 31
0.0
  0
LINE
  5
3ED
330
3E8
100
AcDbEntity
  8
0
  6
Continuous
 62
     0
370
     0
100
AcDbLine
 10
0.0
 20
0.0
 30
0.0
 11
0.0
 21
-0.0125
 31
0.0
  0
LINE
  5
3EE
330
3E8
100
AcDbEntity
  8
0
  6
Continuous
 62
     0
370
     0
100
AcDbLine
 10
0.0
 20
0.0
 30
0.0
 11
0.0125
 21
0.0
 31
0.0
  0
LINE
  5
3EF
330
3E8
100
AcDbEntity
  8
0
  6
Continuous
 62
     0
370
     0
100
AcDbLine
 10
0.0
 20
0.025
 30
0.0
 11
0.0
 21
0.0283125
 31
0.0
  0
LINE
  5
3F0
330
3E8
100
AcDbEntity
  8
0
  6
Continuous
 62
     0
370
     0
100
AcDbLine
 10
-0.025
 20
0.0
 30
0.0
 11
-0.0283125
 21
0.0
 31
0.0
  0
LINE
  5
3F1
330
3E8
100
AcDbEntity
  8
0
  6
Continuous
 62
     0
370
     0
100
AcDbLine
 10
0.0
 20
-0.025
 30
0.0
 11
0.0
 21
-0.0283125
 31
0.0
  0
LINE
  5
3F2
330
3E8
100
AcDbEntity
  8
0
  6
Continuous
 62
     0
370
     0
100
AcDbLine
 10
0.025
 20
0.0
 30
0.0
 11
0.0283125
 21
0.0
 31
0.0
  0
ENDBLK
  5
3EA
330
3E8
100
AcDbEntity
  8
0
100
AcDbBlockEnd
  0
BLOCK
  5
3F5
330
3F4
100
AcDbEntity
  8
0
100
AcDbBlockBegin
  2
SW_CENTERMARKSYMBOL_2
 70
     0
 10
0.0
 20
0.0
 30
0.0
  3
SW_CENTERMARKSYMBOL_2
  1

  0
LINE
  5
3F7
330
3F4
100
AcDbEntity
  8
0
  6
Continuous
 62
     0
370
     0
100
AcDbLine
 10
0.0
 20
0.0
 30
0.0
 11
0.0
 21
0.0125
 31
0.0
  0
LINE
  5
3F8
330
3F4
100
AcDbEntity
  8
0
  6
Continuous
 62
     0
370
     0
100
AcDbLine
 10
0.0
 20
0.0
 30
0.0
 11
-0.0125
 21
0.0
 31
0.0
  0
LINE
  5
3F9
330
3F4
100
AcDbEntity
  8
0
  6
Continuous
 62
     0
370
     0
100
AcDbLine
 10
0.0
 20
0.0
 30
0.0
 11
0.0
 21
-0.0125
 31
0.0
  0
LINE
  5
3FA
330
3F4
100
AcDbEntity
  8
0
  6
Continuous
 62
     0
370
     0
100
AcDbLine
 10
0.0
 20
0.0
 30
0.0
 11
0.0125
 21
0.0
 31
0.0
  0
LINE
  5
3FB
330
3F4
100
AcDbEntity
  8
0
  6
Continuous
 62
     0
370
     0
100
AcDbLine
 10
0.0
 20
0.025
 30
0.0
 11
0.0
 21
0.0283125
 31
0.0
  0
LINE
  5
3FC
330
3F4
100
AcDbEntity
  8
0
  6
Continuous
 62
     0
370
     0
100
AcDbLine
 10
-0.025
 20
0.0
 30
0.0
 11
-0.0283125
 21
0.0
 31
0.0
  0
LINE
  5
3FD
330
3F4
100
AcDbEntity
  8
0
  6
Continuous
 62
     0
370
     0
100
AcDbLine
 10
0.0
 20
-0.025
 30
0.0
 11
0.0
 21
-0.0283125
 31
0.0
  0
LINE
  5
3FE
330
3F4
100
AcDbEntity
  8
0
  6
Continuous
 62
     0
370
     0
100
AcDbLine
 10
0.025
 20
0.0
 30
0.0
 11
0.0283125
 21
0.0
 31
0.0
  0
ENDBLK
  5
3F6
330
3F4
100
AcDbEntity
  8
0
100
AcDbBlockEnd
  0
BLOCK
  5
401
330
400
100
AcDbEntity
  8
0
100
AcDbBlockBegin
  2
SW_CENTERMARKSYMBOL_3
 70
     0
 10
0.0
 20
0.0
 30
0.0
  3
SW_CENTERMARKSYMBOL_3
  1

  0
LINE
  5
403
330
400
100
AcDbEntity
  8
0
  6
Continuous
 62
     0
370
     0
100
AcDbLine
 10
0.0
 20
0.0
 30
0.0
 11
0.0
 21
0.0125
 31
0.0
  0
LINE
  5
404
330
400
100
AcDbEntity
  8
0
  6
Continuous
 62
     0
370
     0
100
AcDbLine
 10
0.0
 20
0.0
 30
0.0
 11
-0.0125
 21
0.0
 31
0.0
  0
LINE
  5
405
330
400
100
AcDbEntity
  8
0
  6
Continuous
 62
     0
370
     0
100
AcDbLine
 10
0.0
 20
0.0
 30
0.0
 11
0.0
 21
-0.0125
 31
0.0
  0
LINE
  5
406
330
400
100
AcDbEntity
  8
0
  6
Continuous
 62
     0
370
     0
100
AcDbLine
 10
0.0
 20
0.0
 30
0.0
 11
0.0125
 21
0.0
 31
0.0
  0
LINE
  5
407
330
400
100
AcDbEntity
  8
0
  6
Continuous
 62
     0
370
     0
100
AcDbLine
 10
0.0
 20
0.025
 30
0.0
 11
0.0
 21
0.0283125
 31
0.0
  0
LINE
  5
408
330
400
100
AcDbEntity
  8
0
  6
Continuous
 62
     0
370
     0
100
AcDbLine
 10
-0.025
 20
0.0
 30
0.0
 11
-0.0283125
 21
0.0
 31
0.0
  0
LINE
  5
409
330
400
100
AcDbEntity
  8
0
  6
Continuous
 62
     0
370
     0
100
AcDbLine
 10
0.0
 20
-0.025
 30
0.0
 11
0.0
 21
-0.0283125
 31
0.0
  0
LINE
  5
40A
330
400
100
AcDbEntity
  8
0
  6
Continuous
 62
     0
370
     0
100
AcDbLine
 10
0.025
 20
0.0
 30
0.0
 11
0.0283125
 21
0.0
 31
0.0
  0
ENDBLK
  5
402
330
400
100
AcDbEntity
  8
0
100
AcDbBlockEnd
  0
BLOCK
  5
40D
330
40C
100
AcDbEntity
  8
0
100
AcDbBlockBegin
  2
SW_CENTERMARKSYMBOL_4
 70
     0
 10
0.0
 20
0.0
 30
0.0
  3
SW_CENTERMARKSYMBOL_4
  1

  0
LINE
  5
40F
330
40C
100
AcDbEntity
  8
0
  6
Continuous
 62
     0
370
     0
100
AcDbLine
 10
0.0
 20
0.0
 30
0.0
 11
0.0
 21
0.0125
 31
0.0
  0
LINE
  5
410
330
40C
100
AcDbEntity
  8
0
  6
Continuous
 62
     0
370
     0
100
AcDbLine
 10
0.0
 20
0.0
 30
0.0
 11
-0.0125
 21
0.0
 31
0.0
  0
LINE
  5
411
330
40C
100
AcDbEntity
  8
0
  6
Continuous
 62
     0
370
     0
100
AcDbLine
 10
0.0
 20
0.0
 30
0.0
 11
0.0
 21
-0.0125
 31
0.0
  0
LINE
  5
412
330
40C
100
AcDbEntity
  8
0
  6
Continuous
 62
     0
370
     0
100
AcDbLine
 10
0.0
 20
0.0
 30
0.0
 11
0.0125
 21
0.0
 31
0.0
  0
LINE
  5
413
330
40C
100
AcDbEntity
  8
0
  6
Continuous
 62
     0
370
     0
100
AcDbLine
 10
0.0
 20
0.025
 30
0.0
 11
0.0
 21
0.0283125
 31
0.0
  0
LINE
  5
414
330
40C
100
AcDbEntity
  8
0
  6
Continuous
 62
     0
370
     0
100
AcDbLine
 10
-0.025
 20
0.0
 30
0.0
 11
-0.0283125
 21
0.0
 31
0.0
  0
LINE
  5
415
330
40C
100
AcDbEntity
  8
0
  6
Continuous
 62
     0
370
     0
100
AcDbLine
 10
0.0
 20
-0.025
 30
0.0
 11
0.0
 21
-0.0283125
 31
0.0
  0
LINE
  5
416
330
40C
100
AcDbEntity
  8
0
  6
Continuous
 62
     0
370
     0
100
AcDbLine
 10
0.025
 20
0.0
 30
0.0
 11
0.0283125
 21
0.0
 31
0.0
  0
ENDBLK
  5
40E
330
40C
100
AcDbEntity
  8
0
100
AcDbBlockEnd
  0
ENDSEC
  0
SECTION
  2
ENTITIES
  0
LWPOLYLINE
  5
44
330
1F
100
AcDbEntity
  8
0
  6
Continuous
 62
     7
370
    15
100
AcDbPolyline
 90
        3
 70
   128
 43
0.0
 10
1.5268217698
 20
2.8964446867
 10
1.5265190533
 20
2.8964447142
 10
1.5256117837
 20
2.8964450626
  0
LWPOLYLINE
  5
45
330
1F
100
AcDbEntity
  8
0
  6
Continuous
 62
     7
370
    15
100
AcDbPolyline
 90
        3
 70
   128
 43
0.0
 10
8.8629077693
 20
2.8964450626
 10
8.8626053462
 20
2.8964448976
 10
8.8616977833
 20
2.8964446867
  0
LINE
  5
46
330
1F
100
AcDbEntity
  8
0
  6
Continuous
 62
     7
370
    15
100
AcDbLine
 10
8.8616977833
 20
2.8964446867
 30
0.0
 11
1.5268217698
 21
2.8964446867
 31
0.0
  0
LINE
  5
47
330
1F
100
AcDbEntity
  8
0
  6
Continuous
 62
     7
370
    15
100
AcDbLine
 10
4.8562022218
 20
2.7740165777
 30
0.0
 11
4.8583418438
 21
2.7331901277
 31
0.0
  0
LINE
  5
48
330
1F
100
AcDbEntity
  8
0
  6
Continuous
 62
     7
370
    15
100
AcDbLine
 10
5.5301777093
 20
2.7331901277
 30
0.0
 11
5.5323173313
 21
2.7740165777
 31
0.0
  0
LWPOLYLINE
  5
49
330
1F
100
AcDbEntity
  8
0
  6
Continuous
 62
     7
370
    15
100
AcDbPolyline
 90
       16
 70
   128
 43
0.0
 10
8.9779171607
 20
3.0074757174
 10
8.9750830068
 20
3.0022575427
 10
8.9676171731
 20
2.9915142968
 10
8.9585746908
 20
2.9809971167
 10
8.9479224139
 20
2.9707707731
 10
8.9356694355
 20
2.9609472816
 10
8.9218970079
 20
2.9516897519
 10
8.9065845981
 20
2.9430015939
 10
8.8888129101
 20
2.9344627776
 10
8.8691996967
 20
2.9265500556
 10
8.8475454935
 20
2.9192447467
 10
8.8234692649
 20
2.9124665242
 10
8.7962192064
 20
2.9061698852
 10
8.7669448779
 20
2.9008653707
 10
8.7362587524
 20
2.8967551673
 10
8.7328109522
 20
2.8964446867
  0
LWPOLYLINE
  5
4A
330
1F
100
AcDbEntity
  8
0
  6
Continuous
 62
     7
370
    15
100
AcDbPolyline
 90
       15
 70
   128
 43
0.0
 10
1.6561139828
 20
2.8964446867
 10
1.6315754663
 20
2.8993711846
 10
1.5991510675
 20
2.9047988702
 10
1.5686189402
 20
2.9115622246
 10
1.5430279559
 20
2.9186168006
 10
1.5207281335
 20
2.9260332266
 10
1.5008057503
 20
2.9339808365
 10
1.4828783041
 20
2.9425100096
 10
1.4669639812
 20
2.951480021
 10
1.4532179534
 20
2.9606778214
 10
1.4409573483
 20
2.9704558834
 10
1.430311818
 20
2.9806115344
 10
1.4212884022
 20
2.9910188809
 10
1.4138454482
 20
3.0015997687
 10
1.4106328987
 20
3.0074926756
  0
ARC
  5
4B
330
1F
100
AcDbEntity
  8
0
  6
Continuous
 62
     7
370
    15
100
AcDbCircle
 10
1.5041939574
 20
3.0579345683
 30
0.0
 40
0.1065107720802644
100
AcDbArc
 50
187.4949347467
 51
208.3779507323
  0
ARC
  5
4C
330
1F
100
AcDbEntity
  8
0
  6
Continuous
 62
     7
370
    15
100
AcDbCircle
 10
8.8695047613
 20
3.0634026171
 30
0.0
 40
0.1221429250699685
100
AcDbArc
 50
332.7098301949
 51
356.2867786925
  0
ELLIPSE
  5
4D
330
1F
100
AcDbEntity
  8
0
  6
Continuous
 62
     7
370
    15
100
AcDbEllipse
 10
8.8503317991
 20
2.8773880734
 30
0.0
 11
0.1256388851557499
 21
0.001970788154045611
 31
0.0
210
0.0
220
0.0
230
0.9999999999999996
 40
0.1282642903
 41
1.470332107236514
 42
1.47819476442187
  0
ELLIPSE
  5
4E
330
1F
100
AcDbEntity
  8
0
  6
Continuous
 62
     7
370
    15
100
AcDbEllipse
 10
8.8630394158
 20
3.0226367974
 30
0.0
 11
0.01124728023401645
 21
0.1285570013386241
 31
0.0
210
0.0
220
0.0
230
0.9999999999999997
 40
0.968631315
 41
3.228805820583796
 42
4.712388980384705
  0
LWPOLYLINE
  5
4F
330
1F
100
AcDbEntity
  8
0
  6
Continuous
 62
     7
370
    15
100
AcDbPolyline
 90
       19
 70
   128
 43
0.0
 10
8.8596494603
 20
2.8702026932
 10
8.8833162002
 20
2.8730105116
 10
8.8951027841
 20
2.876529591
 10
8.9067045701
 20
2.8814727597
 10
8.9204670244
 20
2.8894507384
 10
8.9337944704
 20
2.8997236114
 10
8.9463921116
 20
2.9123141393
 10
8.9509070461
 20
2.9176832872
 10
8.9553929409
 20
2.9235654784
 10
8.9598072633
 20
2.9299757277
 10
8.9636944717
 20
2.9362301455
 10
8.9672068045
 20
2.9424760933
 10
8.9707493502
 20
2.9494819491
 10
8.9742382166
 20
2.9572742407
 10
8.9778095086
 20
2.966514959
 10
8.9816820506
 20
2.9787940438
 10
8.9842742073
 20
2.9893937047
 10
8.9863017039
 20
3.0006902808
 10
8.987473557
 20
3.0107119901
  0
LINE
  5
50
330
1F
100
AcDbEntity
  8
0
  6
Continuous
 62
     7
370
    15
100
AcDbLine
 10
8.8596494603
 20
2.8702026932
 30
0.0
 11
8.8616977833
 21
2.8936162528
 31
0.0
  0
LWPOLYLINE
  5
51
330
1F
100
AcDbEntity
  8
0
  6
Continuous
 62
     7
370
    15
100
AcDbPolyline
 90
       19
 70
   128
 43
0.0
 10
1.5288700928
 20
2.8702026932
 10
1.5052033528
 20
2.8730105116
 10
1.493416769
 20
2.876529591
 10
1.481814983
 20
2.8814727597
 10
1.4680525287
 20
2.8894507384
 10
1.4547250826
 20
2.8997236114
 10
1.4421274415
 20
2.9123141393
 10
1.437612507
 20
2.9176832872
 10
1.4331266121
 20
2.9235654784
 10
1.4287122898
 20
2.9299757277
 10
1.4248250814
 20
2.9362301455
 10
1.4213127486
 20
2.9424760933
 10
1.4177702029
 20
2.9494819491
 10
1.4142813365
 20
2.9572742407
 10
1.4107100444
 20
2.966514959
 10
1.4068375025
 20
2.9787940438
 10
1.4042453458
 20
2.9893937047
 10
1.4022178492
 20
3.0006902808
 10
1.4010459961
 20
3.0107119901
  0
ELLIPSE
  5
52
330
1F
100
AcDbEntity
  8
0
  6
Continuous
 62
     7
370
    15
100
AcDbEllipse
 10
1.5254801372
 20
3.0226367974
 30
0.0
 11
-0.01124728023401667
 21
0.1285570013386241
 31
0.0
210
0.0
220
0.0
230
1.0
 40
0.968631315
 41
1.570796326794893
 42
3.054379486595802
  0
ELLIPSE
  5
53
330
1F
100
AcDbEntity
  8
0
  6
Continuous
 62
     7
370
    15
100
AcDbEllipse
 10
1.538187754
 20
2.8773880734
 30
0.0
 11
0.1256388851557513
 21
-0.001970788154045611
 31
0.0
210
0.0
220
0.0
230
0.9999999999999996
 40
0.1282642903
 41
1.663397889167936
 42
1.671260546353286
  0
LINE
  5
54
330
1F
100
AcDbEntity
  8
0
  6
Continuous
 62
     7
370
    15
100
AcDbLine
 10
1.5288700928
 20
2.8702026932
 30
0.0
 11
1.5268217698
 21
2.8936162528
 31
0.0
  0
ARC
  5
55
330
1F
100
AcDbEntity
  8
0
  6
Continuous
 62
     7
370
    15
100
AcDbCircle
 10
8.8564684971
 20
3.0242721857
 30
0.0
 40
0.1628464612723015
100
AcDbArc
 50
271.1192589335
 51
354.6466500309
  0
LWPOLYLINE
  5
56
330
1F
100
AcDbEntity
  8
0
  6
Continuous
 62
     7
370
    15
100
AcDbPolyline
 90
        3
 70
   128
 43
0.0
 10
9.0365065906
 20
3.2136977785
 10
9.0264814531
 20
3.0991112589
 10
9.018604664
 20
3.0090789856
  0
LINE
  5
57
330
1F
100
AcDbEntity
  8
0
  6
Continuous
 62
     7
370
    15
100
AcDbLine
 10
9.1942597282
 20
3.2136977785
 30
0.0
 11
9.0365065906
 21
3.2136977785
 31
0.0
  0
LINE
  5
58
330
1F
100
AcDbEntity
  8
0
  6
Continuous
 62
     7
370
    15
100
AcDbLine
 10
9.1942597282
 20
3.2136977785
 30
0.0
 11
9.1942597282
 21
2.7740165777
 31
0.0
  0
LINE
  5
59
330
1F
100
AcDbEntity
  8
0
  6
Continuous
 62
     7
370
    15
100
AcDbLine
 10
1.1942598249
 20
3.2136977785
 30
0.0
 11
1.1942598249
 21
2.7740165777
 31
0.0
  0
LINE
  5
5A
330
1F
100
AcDbEntity
  8
0
  6
Continuous
 62
     7
370
    15
100
AcDbLine
 10
1.1942598249
 20
3.2136977785
 30
0.0
 11
1.3520129625
 21
3.2136977785
 31
0.0
  0
LWPOLYLINE
  5
5B
330
1F
100
AcDbEntity
  8
0
  6
Continuous
 62
     7
370
    15
100
AcDbPolyline
 90
        3
 70
   128
 43
0.0
 10
1.3520129625
 20
3.2136977785
 10
1.3620381
 20
3.0991112589
 10
1.369914889
 20
3.0090789856
  0
ARC
  5
5C
330
1F
100
AcDbEntity
  8
0
  6
Continuous
 62
     7
370
    15
100
AcDbCircle
 10
1.5320510559
 20
3.0242721857
 30
0.0
 40
0.1628464612723011
100
AcDbArc
 50
185.3533499691
 51
268.8807410665
  0
LINE
  5
5D
330
1F
100
AcDbEntity
  8
0
  6
Continuous
 62
     7
370
    15
100
AcDbLine
 10
8.8596494603
 20
2.8614567951
 30
0.0
 11
1.5288700928
 21
2.8614567951
 31
0.0
  0
LINE
  5
5E
330
1F
100
AcDbEntity
  8
0
  6
Continuous
 62
     7
370
    15
100
AcDbLine
 10
1.1942598249
 20
2.7740165777
 30
0.0
 11
9.1942597282
 21
2.7740165777
 31
0.0
  0
LINE
  5
5F
330
1F
100
AcDbEntity
  8
0
  6
Continuous
 62
     7
370
    15
100
AcDbLine
 10
8.8596494603
 20
2.8614567951
 30
0.0
 11
8.8596494603
 21
2.8702026932
 31
0.0
  0
LINE
  5
60
330
1F
100
AcDbEntity
  8
0
  6
Continuous
 62
     7
370
    15
100
AcDbLine
 10
1.5288700928
 20
2.8614567951
 30
0.0
 11
1.5288700928
 21
2.8702026932
 31
0.0
  0
LINE
  5
61
330
1F
100
AcDbEntity
  8
0
  6
Continuous
 62
     7
370
    15
100
AcDbLine
 10
1.5288700928
 20
2.8702026932
 30
0.0
 11
8.8596494603
 21
2.8702026932
 31
0.0
  0
ARC
  5
62
330
1F
100
AcDbEntity
  8
0
  6
Continuous
 62
     7
370
    15
100
AcDbCircle
 10
1.3972252386
 20
2.7859962208
 30
0.0
 40
0.2247482483073824
100
AcDbArc
 50
89.0259153339
 51
96.9795625997
  0
ARC
  5
63
330
1F
100
AcDbEntity
  8
0
  6
Continuous
 62
     7
370
    15
100
AcDbCircle
 10
8.9912943145
 20
2.7859962208
 30
0.0
 40
0.2247482483073421
100
AcDbArc
 50
83.0204374003
 51
90.9740846661
  0
LWPOLYLINE
  5
64
330
1F
100
AcDbEntity
  8
0
  6
Continuous
 62
     7
370
    15
100
AcDbPolyline
 90
        3
 70
   128
 43
0.0
 10
8.987473557
 20
3.0107119901
 10
8.9974986945
 20
3.1252985097
 10
9.0053754835
 20
3.2153308196
  0
ARC
  5
65
330
1F
100
AcDbEntity
  8
0
  6
Continuous
 62
     7
370
    15
100
AcDbCircle
 10
9.0091963358
 20
2.9906218658
 30
0.0
 40
0.2247414355431864
100
AcDbArc
 50
83.0202491105
 51
90.9741383602
  0
LWPOLYLINE
  5
66
330
1F
100
AcDbEntity
  8
0
  6
Continuous
 62
     7
370
    15
100
AcDbPolyline
 90
        3
 70
   128
 43
0.0
 10
1.4010459961
 20
3.0107119901
 10
1.3910208585
 20
3.1252985097
 10
1.3831440695
 20
3.2153308196
  0
ARC
  5
67
330
1F
100
AcDbEntity
  8
0
  6
Continuous
 62
     7
370
    15
100
AcDbCircle
 10
1.3793232173
 20
2.9906218658
 30
0.0
 40
0.2247414355433469
100
AcDbArc
 50
89.0258616398
 51
96.9797508895
  0
LINE
  5
68
330
1F
100
AcDbEntity
  8
0
  6
Continuous
 62
     7
370
    15
100
AcDbLine
 10
8.8616977833
 20
2.8936162528
 30
0.0
 11
1.5268217698
 21
2.8936162528
 31
0.0
  0
LWPOLYLINE
  5
69
330
1F
100
AcDbEntity
  8
0
  6
Continuous
 62
     7
370
    15
100
AcDbPolyline
 90
       10
 70
   128
 43
0.0
 10
1.3493744596
 20
3.2740165717
 10
1.3494140592
 20
3.2731086788
 10
1.3495322712
 20
3.2704114
 10
1.3497249889
 20
3.2660030909
 10
1.3499869326
 20
3.2600118268
 10
1.3503107688
 20
3.2526116623
 10
1.3506868178
 20
3.2440175716
 10
1.351103933
 20
3.2344792884
 10
1.3515503812
 20
3.224273863
 10
1.3520129625
 20
3.2136977785
  0
LINE
  5
6A
330
1F
100
AcDbEntity
  8
0
  6
Continuous
 62
     7
370
    15
100
AcDbLine
 10
1.3493744596
 20
3.2740165717
 30
0.0
 11
1.1942598249
 21
3.2740165717
 31
0.0
  0
LINE
  5
6B
330
1F
100
AcDbEntity
  8
0
  6
Continuous
 62
     7
370
    15
100
AcDbLine
 10
1.1942598249
 20
3.2740165717
 30
0.0
 11
1.1942598249
 21
3.2136977785
 31
0.0
  0
LWPOLYLINE
  5
6C
330
1F
100
AcDbEntity
  8
0
  6
Continuous
 62
     7
370
    15
100
AcDbPolyline
 90
        9
 70
   128
 43
0.0
 10
1.3831440695
 20
3.2153308196
 10
1.3826245822
 20
3.2212699077
 10
1.3821273879
 20
3.2269507187
 10
1.3816712599
 20
3.2321644751
 10
1.3812729178
 20
3.2367195592
 10
1.3809467349
 20
3.2404486628
 10
1.3807047377
 20
3.2432146908
 10
1.3805557261
 20
3.2449160412
 10
1.3805055667
 20
3.2454901979
  0
ARC
  5
6D
330
1F
100
AcDbEntity
  8
0
  6
Continuous
 62
     7
370
    15
100
AcDbCircle
 10
1.3493744273
 20
3.2427665777
 30
0.0
 40
0.03125
100
AcDbArc
 50
5.0
 51
90.0
  0
LWPOLYLINE
  5
6E
330
1F
100
AcDbEntity
  8
0
  6
Continuous
 62
     7
370
    15
100
AcDbPolyline
 90
       10
 70
   128
 43
0.0
 10
9.0391450934
 20
3.2740165717
 10
9.0391054939
 20
3.2731086788
 10
9.0389872819
 20
3.2704114
 10
9.0387945641
 20
3.2660030909
 10
9.0385326205
 20
3.2600118268
 10
9.0382087842
 20
3.2526116623
 10
9.0378327353
 20
3.2440175716
 10
9.0374156201
 20
3.2344792884
 10
9.0369691719
 20
3.224273863
 10
9.0365065906
 20
3.2136977785
  0
LINE
  5
6F
330
1F
100
AcDbEntity
  8
0
  6
Continuous
 62
     7
370
    15
100
AcDbLine
 10
9.0391450934
 20
3.2740165717
 30
0.0
 11
9.1942597282
 21
3.2740165717
 31
0.0
  0
LINE
  5
70
330
1F
100
AcDbEntity
  8
0
  6
Continuous
 62
     7
370
    15
100
AcDbLine
 10
9.1942597282
 20
3.2740165717
 30
0.0
 11
9.1942597282
 21
3.2136977785
 31
0.0
  0
LWPOLYLINE
  5
71
330
1F
100
AcDbEntity
  8
0
  6
Continuous
 62
     7
370
    15
100
AcDbPolyline
 90
        9
 70
   128
 43
0.0
 10
9.0053754835
 20
3.2153308196
 10
9.0058949709
 20
3.2212699077
 10
9.0063921651
 20
3.2269507187
 10
9.0068482932
 20
3.2321644751
 10
9.0072466353
 20
3.2367195592
 10
9.0075728182
 20
3.2404486628
 10
9.0078148154
 20
3.2432146908
 10
9.007963827
 20
3.2449160412
 10
9.0080139864
 20
3.2454901979
  0
ARC
  5
72
330
1F
100
AcDbEntity
  8
0
  6
Continuous
 62
     7
370
    15
100
AcDbCircle
 10
9.0391451257
 20
3.2427665777
 30
0.0
 40
0.0312500000000003
100
AcDbArc
 50
90.0
 51
175.0
  0
LINE
  5
73
330
1F
100
AcDbEntity
  8
0
  6
Continuous
 62
     7
370
    15
100
AcDbLine
 10
8.8629077693
 20
2.8964450626
 30
0.0
 11
8.8629268358
 21
2.8964260328
 31
0.0
  0
ELLIPSE
  5
74
330
1F
100
AcDbEntity
  8
0
  6
Continuous
 62
     7
370
    15
100
AcDbEllipse
 10
8.8630394158
 20
3.0226367974
 30
0.0
 11
0.01100080030015427
 21
0.125739722802988
 31
0.0
210
0.0
220
0.0
230
0.9999999999999996
 40
0.9903341163
 41
3.228805820583801
 42
4.712388980384713
  0
ELLIPSE
  5
75
330
1F
100
AcDbEntity
  8
0
  6
Continuous
 62
     7
370
    15
100
AcDbEllipse
 10
1.5254801372
 20
3.0226367974
 30
0.0
 11
-0.0110008003001536
 21
0.125739722802988
 31
0.0
210
0.0
220
0.0
230
1.0
 40
0.9903341163
 41
1.570796326794893
 42
3.054379486595805
  0
LINE
  5
76
330
1F
100
AcDbEntity
  8
0
  6
Continuous
 62
     7
370
    15
100
AcDbLine
 10
1.5256120771
 20
2.8964450626
 30
0.0
 11
1.5255927173
 21
2.8964260328
 31
0.0
  0
LWPOLYLINE
  5
77
330
1F
100
AcDbEntity
  8
0
  6
Continuous
 62
     7
370
    15
100
AcDbPolyline
 90
       10
 70
   128
 43
0.0
 10
9.1828307136
 20
3.2865165706
 10
9.1826602889
 20
3.2843459657
 10
9.1824948508
 20
3.2822413233
 10
9.1823396792
 20
3.2802665895
 10
9.1821994675
 20
3.2784817501
 10
9.1820783222
 20
3.2769410346
 10
9.18198035
 20
3.2756912657
 10
9.1819078976
 20
3.2747704296
 10
9.1818636047
 20
3.2742064661
 10
9.1818486449
 20
3.2740165717
  0
LINE
  5
78
330
1F
100
AcDbEntity
  8
0
  6
Continuous
 62
     7
370
    15
100
AcDbLine
 10
9.1828307136
 20
3.2865165706
 30
0.0
 11
9.1942597282
 21
3.2865165706
 31
0.0
  0
LINE
  5
79
330
1F
100
AcDbEntity
  8
0
  6
Continuous
 62
     7
370
    15
100
AcDbLine
 10
9.1942597282
 20
3.2865165706
 30
0.0
 11
9.1942597282
 21
3.2740165717
 31
0.0
  0
LWPOLYLINE
  5
7A
330
1F
100
AcDbEntity
  8
0
  6
Continuous
 62
     7
370
    15
100
AcDbPolyline
 90
       10
 70
   128
 43
0.0
 10
1.2056888395
 20
3.2865165706
 10
1.2058592642
 20
3.2843459657
 10
1.2060247023
 20
3.2822413233
 10
1.2061798738
 20
3.2802665895
 10
1.2063200856
 20
3.2784817501
 10
1.2064412308
 20
3.2769410346
 10
1.206539203
 20
3.2756912657
 10
1.2066116555
 20
3.2747704296
 10
1.2066559483
 20
3.2742064661
 10
1.2066709082
 20
3.2740165717
  0
LINE
  5
7B
330
1F
100
AcDbEntity
  8
0
  6
Continuous
 62
     7
370
    15
100
AcDbLine
 10
1.2056888395
 20
3.2865165706
 30
0.0
 11
1.1942598249
 21
3.2865165706
 31
0.0
  0
LINE
  5
7C
330
1F
100
AcDbEntity
  8
0
  6
Continuous
 62
     7
370
    15
100
AcDbLine
 10
1.1942598249
 20
3.2865165706
 30
0.0
 11
1.1942598249
 21
3.2740165717
 31
0.0
  0
LWPOLYLINE
  5
7D
330
1F
100
AcDbEntity
  8
0
  6
Continuous
 62
     7
370
    15
100
AcDbPolyline
 90
        9
 70
   128
 43
0.0
 10
1.2213042591
 20
3.287061871
 10
1.2210041826
 20
3.2870514211
 10
1.2201156862
 20
3.2870203648
 10
1.2186725029
 20
3.2869699854
 10
1.2167306586
 20
3.2869021528
 10
1.214364366
 20
3.2868195438
 10
1.2116645571
 20
3.2867252749
 10
1.208735071
 20
3.286622976
 10
1.2056888395
 20
3.2865165706
  0
LWPOLYLINE
  5
7E
330
1F
100
AcDbEntity
  8
0
  6
Continuous
 62
     7
370
    15
100
AcDbPolyline
 90
        4
 70
   128
 43
0.0
 10
1.2217598005
 20
3.2740165717
 10
1.2216146022
 20
3.2781734603
 10
1.221461484
 20
3.282559623
 10
1.2213042591
 20
3.287061871
  0
LWPOLYLINE
  5
7F
330
1F
100
AcDbEntity
  8
0
  6
Continuous
 62
     7
370
    15
100
AcDbPolyline
 90
        4
 70
   128
 43
0.0
 10
9.1667597525
 20
3.2740165717
 10
9.1669049509
 20
3.2781734603
 10
9.1670580691
 20
3.282559623
 10
9.1672152939
 20
3.287061871
  0
LWPOLYLINE
  5
80
330
1F
100
AcDbEntity
  8
0
  6
Continuous
 62
     7
370
    15
100
AcDbPolyline
 90
        9
 70
   128
 43
0.0
 10
9.1672152939
 20
3.287061871
 10
9.1675153705
 20
3.2870514211
 10
9.1684038669
 20
3.2870203648
 10
9.1698470502
 20
3.2869699854
 10
9.1717888944
 20
3.2869021528
 10
9.1741551871
 20
3.2868195438
 10
9.1768549959
 20
3.2867252749
 10
9.1797844821
 20
3.286622976
 10
9.1828307136
 20
3.2865165706
  0
LWPOLYLINE
  5
81
330
1F
100
AcDbEntity
  8
0
  6
Continuous
 62
     7
370
    15
100
AcDbPolyline
 90
        9
 70
   128
 43
0.0
 10
9.1700526745
 20
3.3683118824
 10
9.1701591533
 20
3.3713601671
 10
9.1702615254
 20
3.3742913033
 10
9.1703556843
 20
3.3769926521
 10
9.1704384034
 20
3.3793604114
 10
9.1705064559
 20
3.3813036123
 10
9.1705566153
 20
3.3827474923
 10
9.1705877083
 20
3.3836366487
 10
9.1705982682
 20
3.3839368719
  0
ARC
  5
82
330
1F
100
AcDbEntity
  8
0
  6
Continuous
 62
     7
370
    15
100
AcDbCircle
 10
9.1862137598
 20
3.3833915777
 30
0.0
 40
0.0156250000000012
100
AcDbArc
 50
90.0
 51
178.0
  0
LWPOLYLINE
  5
83
330
1F
100
AcDbEntity
  8
0
  6
Continuous
 62
     7
370
    15
100
AcDbPolyline
 90
       10
 70
   128
 43
0.0
 10
9.1862136878
 20
3.3990165977
 10
9.1862054746
 20
3.3985418431
 10
9.1861808349
 20
3.3971319528
 10
9.1861406487
 20
3.3948298994
 10
9.1860860893
 20
3.3917054954
 10
9.1860189167
 20
3.3878537066
 10
9.185940891
 20
3.3833915715
 10
9.185854652
 20
3.3784547185
 10
9.1857628397
 20
3.373193076
 10
9.1856680941
 20
3.367766582
  0
LWPOLYLINE
  5
84
330
1F
100
AcDbEntity
  8
0
  6
Continuous
 62
     7
370
    15
100
AcDbPolyline
 90
        9
 70
   128
 43
0.0
 10
9.1700526745
 20
3.3683118824
 10
9.170352751
 20
3.3683013958
 10
9.1712412474
 20
3.3682703762
 10
9.1726844308
 20
3.3682199968
 10
9.174626275
 20
3.3681521642
 10
9.1769925677
 20
3.3680695185
 10
9.1796923765
 20
3.3679752496
 10
9.1826215693
 20
3.3678729508
 10
9.1856680941
 20
3.367766582
  0
LWPOLYLINE
  5
85
330
1F
100
AcDbEntity
  8
0
  6
Continuous
 62
     7
370
    15
100
AcDbPolyline
 90
        9
 70
   128
 43
0.0
 10
1.2023058653
 20
3.3990165977
 10
1.2023161318
 20
3.3984161513
 10
1.2023472248
 20
3.3966378385
 10
1.2023976775
 20
3.3937500052
 10
1.2024657301
 20
3.3898636767
 10
1.2025481558
 20
3.3851281581
 10
1.202642608
 20
3.3797254238
 10
1.2027449802
 20
3.3738631516
 10
1.202851459
 20
3.367766582
  0
LINE
  5
86
330
1F
100
AcDbEntity
  8
0
  6
Continuous
 62
     7
370
    15
100
AcDbLine
 10
1.1942598249
 20
3.367766582
 30
0.0
 11
1.202851459
 21
3.367766582
 31
0.0
  0
LINE
  5
87
330
1F
100
AcDbEntity
  8
0
  6
Continuous
 62
     7
370
    15
100
AcDbLine
 10
1.2023058653
 20
3.3990165977
 30
0.0
 11
1.1942598249
 21
3.3990165977
 31
0.0
  0
LINE
  5
88
330
1F
100
AcDbEntity
  8
0
  6
Continuous
 62
     7
370
    15
100
AcDbLine
 10
1.1942598249
 20
3.3990165977
 30
0.0
 11
1.1942598249
 21
3.367766582
 31
0.0
  0
ARC
  5
89
330
1F
100
AcDbEntity
  8
0
  6
Continuous
 62
     7
370
    15
100
AcDbCircle
 10
1.2023057932
 20
3.3833915777
 30
0.0
 40
0.015625
100
AcDbArc
 50
2.0
 51
90.0
  0
LWPOLYLINE
  5
8A
330
1F
100
AcDbEntity
  8
0
  6
Continuous
 62
     7
370
    15
100
AcDbPolyline
 90
        9
 70
   128
 43
0.0
 10
1.2184668786
 20
3.3683118824
 10
1.2183603998
 20
3.3713601671
 10
1.2182580276
 20
3.3742913033
 10
1.2181638687
 20
3.3769926521
 10
1.2180811497
 20
3.3793604114
 10
1.2180130971
 20
3.3813036123
 10
1.2179629377
 20
3.3827474923
 10
1.2179318447
 20
3.3836366487
 10
1.2179212849
 20
3.3839368719
  0
LWPOLYLINE
  5
8B
330
1F
100
AcDbEntity
  8
0
  6
Continuous
 62
     7
370
    15
100
AcDbPolyline
 90
        9
 70
   128
 43
0.0
 10
1.2184668786
 20
3.3683118824
 10
1.218166802
 20
3.3683013958
 10
1.2172783056
 20
3.3682703762
 10
1.2158351223
 20
3.3682199968
 10
1.2138932781
 20
3.3681521642
 10
1.2115269854
 20
3.3680695185
 10
1.2088271766
 20
3.3679752496
 10
1.2058979838
 20
3.3678729508
 10
1.202851459
 20
3.367766582
  0
LINE
  5
8C
330
1F
100
AcDbEntity
  8
0
  6
Continuous
 62
     7
370
    15
100
AcDbLine
 10
9.1942597282
 20
3.367766582
 30
0.0
 11
9.1856680941
 21
3.367766582
 31
0.0
  0
LINE
  5
8D
330
1F
100
AcDbEntity
  8
0
  6
Continuous
 62
     7
370
    15
100
AcDbLine
 10
9.1862136878
 20
3.3990165977
 30
0.0
 11
9.1942597282
 21
3.3990165977
 31
0.0
  0
LINE
  5
8E
330
1F
100
AcDbEntity
  8
0
  6
Continuous
 62
     7
370
    15
100
AcDbLine
 10
9.1942597282
 20
3.3990165977
 30
0.0
 11
9.1942597282
 21
3.367766582
 31
0.0
  0
LINE
  5
8F
330
1F
100
AcDbEntity
  8
0
  6
Continuous
 62
     7
370
    15
100
AcDbLine
 10
1.202851459
 20
3.367766582
 30
0.0
 11
1.2056888395
 21
3.2865165706
 31
0.0
  0
LINE
  5
90
330
1F
100
AcDbEntity
  8
0
  6
Continuous
 62
     7
370
    15
100
AcDbLine
 10
1.2213042591
 20
3.287061871
 30
0.0
 11
1.2184668786
 21
3.3683118824
 31
0.0
  0
LINE
  5
91
330
1F
100
AcDbEntity
  8
0
  6
Continuous
 62
     7
370
    15
100
AcDbLine
 10
9.1856680941
 20
3.367766582
 30
0.0
 11
9.1828307136
 21
3.2865165706
 31
0.0
  0
LINE
  5
92
330
1F
100
AcDbEntity
  8
0
  6
Continuous
 62
     7
370
    15
100
AcDbLine
 10
9.1942597282
 20
3.367766582
 30
0.0
 11
9.1942597282
 21
3.2865165706
 31
0.0
  0
LINE
  5
93
330
1F
100
AcDbEntity
  8
0
  6
Continuous
 62
     7
370
    15
100
AcDbLine
 10
1.1942598249
 20
3.367766582
 30
0.0
 11
1.1942598249
 21
3.2865165706
 31
0.0
  0
LINE
  5
94
330
1F
100
AcDbEntity
  8
0
  6
Continuous
 62
     7
370
    15
100
AcDbLine
 10
9.1672152939
 20
3.287061871
 30
0.0
 11
9.1700526745
 21
3.3683118824
 31
0.0
  0
LINE
  5
95
330
1F
100
AcDbEntity
  8
0
  6
Continuous
 62
     7
370
    15
100
AcDbLine
 10
5.4077871465
 20
2.7738018855
 30
0.0
 11
5.4077984031
 21
2.7740165777
 31
0.0
  0
LINE
  5
96
330
1F
100
AcDbEntity
  8
0
  6
Continuous
 62
     7
370
    15
100
AcDbLine
 10
5.2491824079
 20
2.7724177628
 30
0.0
 11
5.4077871465
 21
2.7738018855
 31
0.0
  0
ARC
  5
97
330
1F
100
AcDbEntity
  8
0
  6
Continuous
 62
     7
370
    15
100
AcDbCircle
 10
5.1942597765
 20
9.0659281161
 30
0.0
 40
6.29375
100
AcDbArc
 50
269.5
 51
270.5
  0
LINE
  5
98
330
1F
100
AcDbEntity
  8
0
  6
Continuous
 62
     7
370
    15
100
AcDbLine
 10
5.1393371452
 20
2.7724177628
 30
0.0
 11
4.9807324066
 21
2.7738018855
 31
0.0
  0
LINE
  5
99
330
1F
100
AcDbEntity
  8
0
  6
Continuous
 62
     7
370
    15
100
AcDbLine
 10
4.9807324066
 20
2.7738018855
 30
0.0
 11
4.98072115
 21
2.7740165777
 31
0.0
  0
LINE
  5
9A
330
1F
100
AcDbEntity
  8
0
  6
Continuous
 62
     7
370
    15
100
AcDbLine
 10
5.1942597765
 20
2.7331901277
 30
0.0
 11
5.5301777093
 21
2.7331901277
 31
0.0
  0
LINE
  5
9B
330
1F
100
AcDbEntity
  8
0
  6
Continuous
 62
     7
370
    15
100
AcDbLine
 10
4.8583418438
 20
2.7331901277
 30
0.0
 11
5.1942597765
 21
2.7331901277
 31
0.0
  0
LINE
  5
9C
330
1F
100
AcDbEntity
  8
0
  6
Continuous
 62
     7
370
    15
100
AcDbLine
 10
4.9561310991
 20
2.7740165777
 30
0.0
 11
4.9807324066
 21
2.7738018855
 31
0.0
  0
LINE
  5
9D
330
1F
100
AcDbEntity
  8
0
  6
Continuous
 62
     7
370
    15
100
AcDbLine
 10
5.432388454
 20
2.7740165777
 30
0.0
 11
5.4077871465
 21
2.7738018855
 31
0.0
  0
ARC
  5
9E
330
1F
100
AcDbEntity
  8
0
  6
Continuous
 62
     7
370
    15
100
AcDbCircle
 10
9.1571028888
 20
3.2840165777
 30
0.0
 40
0.0100000000000002
100
AcDbArc
 50
270.0
 51
358.0
  0
ARC
  5
9F
330
1F
100
AcDbEntity
  8
0
  6
Continuous
 62
     7
370
    15
100
AcDbCircle
 10
1.2314166643
 20
3.2840165777
 30
0.0
 40
0.0100000000000005
100
AcDbArc
 50
182.0
 51
270.0
  0
ELLIPSE
  5
A0
330
1F
100
AcDbEntity
  8
0
  6
Continuous
 62
     7
370
    15
100
AcDbEllipse
 10
8.7459625774
 20
2.9937327129
 30
0.0
 11
0.1254809897732602
 21
4.691194143990883E-5
 31
0.0
210
0.0
220
0.0
230
0.9999999999999999
 40
0.0350248103
 41
6.280107848122465
 42
7.84330797837036
  0
ELLIPSE
  5
A1
330
1F
100
AcDbEntity
  8
0
  6
Continuous
 62
     7
370
    15
100
AcDbEllipse
 10
1.6425569757
 20
2.9937327129
 30
0.0
 11
0.1254809897732602
 21
-4.691194143990883E-5
 31
0.0
210
0.0
220
0.0
230
0.9999999999999999
 40
0.0350248103
 41
1.581469982399025
 42
3.144670112647715
  0
LINE
  5
A2
330
1F
100
AcDbEntity
  8
0
  6
Continuous
 62
     7
370
    15
100
AcDbLine
 10
8.7473002782
 20
2.9981279154
 30
0.0
 11
1.6412192749
 21
2.9981279154
 31
0.0
  0
ARC
  5
A3
330
1F
100
AcDbEntity
  8
0
  6
Continuous
 62
     7
370
    15
100
AcDbCircle
 10
1.5170271858
 20
3.1187193605
 30
0.0
 40
0.124953271046794
100
AcDbArc
 50
185.015415324
 51
270.0225982217
  0
ARC
  5
A4
330
1F
100
AcDbEntity
  8
0
  6
Continuous
 62
     7
370
    15
100
AcDbCircle
 10
8.8714923673
 20
3.1187193605
 30
0.0
 40
0.1249532710467928
100
AcDbArc
 50
269.9774017783
 51
354.984584676
  0
ELLIPSE
  5
A5
330
1F
100
AcDbEntity
  8
0
  6
Continuous
 62
     7
370
    15
100
AcDbEllipse
 10
1.6425569757
 20
3.1186565663
 30
0.0
 11
0.2500052124297429
 21
0.01085382882754704
 31
0.0
210
0.0
220
0.0
230
1.0
 40
0.0257163126
 41
3.14272179161797
 42
4.705921921865853
  0
LINE
  5
A6
330
1F
100
AcDbEntity
  8
0
  6
Continuous
 62
     7
370
    15
100
AcDbLine
 10
1.6412192749
 20
3.1121572915
 30
0.0
 11
1.6412192749
 21
2.9981279154
 31
0.0
  0
ELLIPSE
  5
A7
330
1F
100
AcDbEntity
  8
0
  6
Continuous
 62
     7
370
    15
100
AcDbEllipse
 10
1.6316987567
 20
3.2427665777
 30
0.0
 11
0.2511933546005154
 21
-0.002726475508972205
 31
0.0
210
0.0
220
0.0
230
0.9999999999999998
 40
0.0107491801
 41
1.579450631720654
 42
3.142650761970583
  0
LINE
  5
A8
330
1F
100
AcDbEntity
  8
0
  6
Continuous
 62
     7
370
    15
100
AcDbLine
 10
1.6412192749
 20
3.1121572915
 30
0.0
 11
1.6295541297
 21
3.2454901979
 31
0.0
  0
ELLIPSE
  5
A9
330
1F
100
AcDbEntity
  8
0
  6
Continuous
 62
     7
370
    15
100
AcDbEllipse
 10
8.7459625774
 20
3.1186565663
 30
0.0
 11
0.2500052124297429
 21
-0.01085382882754659
 31
0.0
210
0.0
220
0.0
230
1.0
 40
0.0257163126
 41
4.718856038903525
 42
6.282056169152414
  0
LINE
  5
AA
330
1F
100
AcDbEntity
  8
0
  6
Continuous
 62
     7
370
    15
100
AcDbLine
 10
8.7473002782
 20
3.1121572915
 30
0.0
 11
8.7589654234
 21
3.2454901979
 31
0.0
  0
ELLIPSE
  5
AB
330
1F
100
AcDbEntity
  8
0
  6
Continuous
 62
     7
370
    15
100
AcDbEllipse
 10
8.7568207964
 20
3.2427665777
 30
0.0
 11
0.251193354600515
 21
0.00272647550897176
 31
0.0
210
0.0
220
0.0
230
1.0
 40
0.0107491801
 41
6.282127198801572
 42
7.845327329048725
  0
LINE
  5
AC
330
1F
100
AcDbEntity
  8
0
  6
Continuous
 62
     7
370
    15
100
AcDbLine
 10
8.7473002782
 20
3.1121572915
 30
0.0
 11
8.7473002782
 21
2.9981279154
 31
0.0
  0
LINE
  5
AD
330
1F
100
AcDbEntity
  8
0
  6
Continuous
 62
     7
370
    15
100
AcDbLine
 10
8.7589654234
 20
3.2454901979
 30
0.0
 11
8.7589654234
 21
3.2740165717
 31
0.0
  0
LINE
  5
AE
330
1F
100
AcDbEntity
  8
0
  6
Continuous
 62
     7
370
    15
100
AcDbLine
 10
8.7589654234
 20
3.2740165717
 30
0.0
 11
9.0391450934
 21
3.2740165717
 31
0.0
  0
LINE
  5
AF
330
1F
100
AcDbEntity
  8
0
  6
Continuous
 62
     7
370
    15
100
AcDbLine
 10
1.6295541297
 20
3.2454901979
 30
0.0
 11
1.6295541297
 21
3.2740165717
 31
0.0
  0
LINE
  5
B0
330
1F
100
AcDbEntity
  8
0
  6
Continuous
 62
     7
370
    15
100
AcDbLine
 10
1.6295541297
 20
3.2740165717
 30
0.0
 11
1.3493744596
 21
3.2740165717
 31
0.0
  0
LINE
  5
B1
330
1F
100
AcDbEntity
  8
0
  6
Continuous
 62
     7
370
    15
100
AcDbLine
 10
1.6412192749
 20
3.1121572915
 30
0.0
 11
8.7473002782
 21
3.1121572915
 31
0.0
  0
LINE
  5
B2
330
1F
100
AcDbEntity
  8
0
  6
Continuous
 62
     7
370
    15
100
AcDbLine
 10
8.7589654234
 20
3.2454901979
 30
0.0
 11
1.6295541297
 21
3.2454901979
 31
0.0
  0
LINE
  5
B3
330
1F
100
AcDbEntity
  8
0
  6
Continuous
 62
     7
370
    15
100
AcDbLine
 10
1.6295541297
 20
3.2740165717
 30
0.0
 11
8.7589654234
 21
3.2740165717
 31
0.0
  0
LINE
  5
B4
330
1F
100
AcDbEntity
  8
0
  6
Continuous
 62
     7
370
    15
100
AcDbLine
 10
9.1358659494
 20
3.2740165717
 30
0.0
 11
9.1358659494
 21
3.2836675668
 31
0.0
  0
ELLIPSE
  5
B5
330
1F
100
AcDbEntity
  8
0
  6
Continuous
 62
     7
370
    15
100
AcDbEllipse
 10
9.135839936
 20
3.2840165777
 30
0.0
 11
0.03125686321437371
 21
-0.0003489026132732498
 31
0.0
210
0.0
220
0.0
230
0.9999999999999999
 40
0.0111547534
 41
4.713342040432126
 42
6.28292039205727
  0
ELLIPSE
  5
B6
330
1F
100
AcDbEntity
  8
0
  6
Continuous
 62
     7
370
    15
100
AcDbEllipse
 10
1.2526796171
 20
3.2840165777
 30
0.0
 11
0.03125686321437393
 21
0.0003489026132728057
 31
0.0
210
0.0
220
0.0
230
1.0
 40
0.0111547534
 41
3.141857568715899
 42
4.711435920337268
  0
LINE
  5
B7
330
1F
100
AcDbEntity
  8
0
  6
Continuous
 62
     7
370
    15
100
AcDbLine
 10
1.2526536036
 20
3.2740165717
 30
0.0
 11
1.2526536036
 21
3.2836675668
 31
0.0
  0
ELLIPSE
  5
B8
330
1F
100
AcDbEntity
  8
0
  6
Continuous
 62
     7
370
    15
100
AcDbEllipse
 10
1.2492093656
 20
3.3833915777
 30
0.0
 11
0.0312880950576282
 21
-0.0005458007176657453
 31
0.0
210
0.0
220
0.0
230
0.9999999999999999
 40
0.0173913986
 41
1.572925559624148
 42
3.14250391124787
  0
LINE
  5
B9
330
1F
100
AcDbEntity
  8
0
  6
Continuous
 62
     7
370
    15
100
AcDbLine
 10
1.2526536036
 20
3.2836675668
 30
0.0
 11
1.2491521241
 21
3.3839368719
 31
0.0
  0
ELLIPSE
  5
BA
330
1F
100
AcDbEntity
  8
0
  6
Continuous
 62
     7
370
    15
100
AcDbEllipse
 10
9.1393101874
 20
3.3833915777
 30
0.0
 11
0.03128809505762931
 21
0.0005458007176661894
 31
0.0
210
0.0
220
0.0
230
0.9999999999999999
 40
0.0173913986
 41
6.282274049522331
 42
7.851852401145209
  0
LINE
  5
BB
330
1F
100
AcDbEntity
  8
0
  6
Continuous
 62
     7
370
    15
100
AcDbLine
 10
9.1358659494
 20
3.2836675668
 30
0.0
 11
9.139367429
 21
3.3839368719
 31
0.0
  0
LINE
  5
BC
330
1F
100
AcDbEntity
  8
0
  6
Continuous
 62
     7
370
    15
100
AcDbLine
 10
9.139367429
 20
3.3839368719
 30
0.0
 11
9.139367429
 21
3.3990165977
 31
0.0
  0
LINE
  5
BD
330
1F
100
AcDbEntity
  8
0
  6
Continuous
 62
     7
370
    15
100
AcDbLine
 10
9.139367429
 20
3.3990165977
 30
0.0
 11
9.1862136878
 21
3.3990165977
 31
0.0
  0
LINE
  5
BE
330
1F
100
AcDbEntity
  8
0
  6
Continuous
 62
     7
370
    15
100
AcDbLine
 10
1.2491521241
 20
3.3839368719
 30
0.0
 11
1.2491521241
 21
3.3990165977
 31
0.0
  0
LINE
  5
BF
330
1F
100
AcDbEntity
  8
0
  6
Continuous
 62
     7
370
    15
100
AcDbLine
 10
1.2491521241
 20
3.3990165977
 30
0.0
 11
1.2023058653
 21
3.3990165977
 31
0.0
  0
LINE
  5
C0
330
1F
100
AcDbEntity
  8
0
  6
Continuous
 62
     7
370
    15
100
AcDbLine
 10
1.2526536036
 20
3.2836675668
 30
0.0
 11
9.1358659494
 21
3.2836675668
 31
0.0
  0
LINE
  5
C1
330
1F
100
AcDbEntity
  8
0
  6
Continuous
 62
     7
370
    15
100
AcDbLine
 10
9.139367429
 20
3.3839368719
 30
0.0
 11
1.2491521241
 21
3.3839368719
 31
0.0
  0
LINE
  5
C2
330
1F
100
AcDbEntity
  8
0
  6
Continuous
 62
     7
370
    15
100
AcDbLine
 10
1.2491521241
 20
3.3990165977
 30
0.0
 11
9.139367429
 21
3.3990165977
 31
0.0
  0
ARC
  5
C3
330
1F
100
AcDbEntity
  8
0
  6
Continuous
 62
     7
370
    15
100
AcDbCircle
 10
8.8750783656
 20
2.8940478059
 30
0.0
 40
0.0124044448989877
100
AcDbArc
 50
168.8570283477
 51
181.9789059926
  0
ARC
  5
C4
330
1F
100
AcDbEntity
  8
0
  6
Continuous
 62
     7
370
    15
100
AcDbCircle
 10
1.5133954519
 20
2.8940454087
 30
0.0
 40
0.0124500710060555
100
AcDbArc
 50
358.0393873041
 51
11.1128582537
  0
LINE
  5
C5
330
1F
100
AcDbEntity
  8
0
  6
Continuous
 62
     7
370
    15
100
AcDbLine
 10
1.5268217698
 20
2.8936162528
 30
0.0
 11
1.5268217698
 21
2.8964446867
 31
0.0
  0
LINE
  5
C6
330
1F
100
AcDbEntity
  8
0
  6
Continuous
 62
     7
370
    15
100
AcDbLine
 10
8.8616977833
 20
2.8936162528
 30
0.0
 11
8.8616977833
 21
2.8964446867
 31
0.0
  0
ARC
  5
C7
330
1F
100
AcDbEntity
  8
0
  6
Continuous
 62
     7
370
    15
100
AcDbCircle
 10
8.9753629457
 20
2.9881656387
 30
0.0
 40
0.0194091049549417
100
AcDbArc
 50
54.4727653686
 51
81.9529336093
  0
LWPOLYLINE
  5
C8
330
1F
100
AcDbEntity
  8
0
  6
Continuous
 62
     7
370
    15
100
AcDbPolyline
 90
        9
 70
   128
 43
0.0
 10
8.9868722306
 20
3.0038385361
 10
8.9788666698
 20
2.990983553
 10
8.9640511609
 20
2.9733290319
 10
8.946788987
 20
2.9579748776
 10
8.9211434433
 20
2.9407861828
 10
8.8934181902
 20
2.9267975344
 10
8.8645193241
 20
2.9155066782
 10
8.8163994266
 20
2.9015247581
 10
8.790278395
 20
2.8964446867
  0
LWPOLYLINE
  5
C9
330
1F
100
AcDbEntity
  8
0
  6
Continuous
 62
     7
370
    15
100
AcDbPolyline
 90
        9
 70
   128
 43
0.0
 10
1.4016473225
 20
3.0038385361
 10
1.4096528833
 20
2.990983553
 10
1.4244683922
 20
2.9733290319
 10
1.4417305661
 20
2.9579748776
 10
1.4673761098
 20
2.9407861828
 10
1.4951013629
 20
2.9267975344
 10
1.524000229
 20
2.9155066782
 10
1.5721201265
 20
2.9015247581
 10
1.5982411581
 20
2.8964446867
  0
ARC
  5
CA
330
1F
100
AcDbEntity
  8
0
  6
Continuous
 62
     7
370
    15
100
AcDbCircle
 10
1.4131472119
 20
2.9881855183
 30
0.0
 40
0.0193874669908024
100
AcDbArc
 50
98.027189562
 51
125.5387762858
  0
LINE
  5
CB
330
1F
100
AcDbEntity
  8
0
  6
Continuous
 62
     7
370
    15
100
AcDbLine
 10
8.8654518199
 20
2.9252855927
 30
0.0
 11
8.8714430841
 21
2.9937660991
 31
0.0
  0
LINE
  5
CC
330
1F
100
AcDbEntity
  8
0
  6
Continuous
 62
     7
370
    15
100
AcDbLine
 10
1.5230706664
 20
2.9252541881
 30
0.0
 11
1.517076469
 21
2.9937660991
 31
0.0
  0
CIRCLE
  5
CD
330
1F
100
AcDbEntity
  8
0
  6
Continuous
 62
     7
100
AcDbCircle
 10
5.1942597765
 20
5.5055796409
 30
0.0
 40
0.2050000000000004
  0
LINE
  5
CE
330
1F
100
AcDbEntity
  8
0
  6
Continuous
 62
     7
370
    15
100
AcDbLine
 10
9.139367429
 20
9.1850432578
 30
0.0
 11
9.139367429
 21
9.2006586775
 31
0.0
  0
LINE
  5
CF
330
1F
100
AcDbEntity
  8
0
  6
Continuous
 62
     7
370
    15
100
AcDbLine
 10
9.139367429
 20
9.1850432578
 30
0.0
 11
1.2491521241
 21
9.1850432578
 31
0.0
  0
LINE
  5
D0
330
1F
100
AcDbEntity
  8
0
  6
Continuous
 62
     7
370
    15
100
AcDbLine
 10
1.2491521241
 20
9.1850432578
 30
0.0
 11
1.2491521241
 21
9.2006586775
 31
0.0
  0
LINE
  5
D1
330
1F
100
AcDbEntity
  8
0
  6
Continuous
 62
     7
370
    15
100
AcDbLine
 10
1.2491521241
 20
9.2006586775
 30
0.0
 11
9.139367429
 21
9.2006586775
 31
0.0
  0
ELLIPSE
  5
D2
330
1F
100
AcDbEntity
  8
0
  6
Continuous
 62
     7
370
    15
100
AcDbEllipse
 10
1.2492093656
 20
9.1537550518
 30
0.0
 11
-0.03318602552808692
 21
0.03318602552808692
 31
0.0
210
0.0
220
0.0
230
0.9999999999999998
 40
0.998782766
 41
5.498396131367764
 42
7.067974482991422
  0
ELLIPSE
  5
D3
330
1F
100
AcDbEntity
  8
0
  6
Continuous
 62
     7
370
    15
100
AcDbEllipse
 10
1.2492093656
 20
9.1537550518
 30
0.0
 11
0.02215093073524832
 21
-0.02215093073524876
 31
0.0
210
0.0
220
0.0
230
0.9999999999999998
 40
0.9975692298
 41
2.356803477777968
 42
3.926381829401631
  0
LINE
  5
D4
330
1F
100
AcDbEntity
  8
0
  6
Continuous
 62
     7
370
    15
100
AcDbLine
 10
1.2179212849
 20
9.1538121253
 30
0.0
 11
1.2023058653
 21
9.1538121253
 31
0.0
  0
LINE
  5
D5
330
1F
100
AcDbEntity
  8
0
  6
Continuous
 62
     7
370
    15
100
AcDbLine
 10
9.1862136878
 20
5.0837046394
 30
0.0
 11
9.1942597282
 21
5.0837046394
 31
0.0
  0
LINE
  5
D6
330
1F
100
AcDbEntity
  8
0
  6
Continuous
 62
     7
370
    15
100
AcDbLine
 10
9.1862136878
 20
9.1538121253
 30
0.0
 11
9.1862136878
 21
5.0837046394
 31
0.0
  0
ELLIPSE
  5
D7
330
1F
100
AcDbEntity
  8
0
  6
Continuous
 62
     7
370
    15
100
AcDbEllipse
 10
9.1393101874
 20
9.1537550518
 30
0.0
 11
0.03318602552808692
 21
0.03318602552808692
 31
0.0
210
0.0
220
0.0
230
1.0
 40
0.998782766
 41
5.49839613136778
 42
7.06797448299142
  0
LINE
  5
D8
330
1F
100
AcDbEntity
  8
0
  6
Continuous
 62
     7
370
    15
100
AcDbLine
 10
1.2023058653
 20
9.1538121253
 30
0.0
 11
1.2023058653
 21
5.0837046394
 31
0.0
  0
LINE
  5
D9
330
1F
100
AcDbEntity
  8
0
  6
Continuous
 62
     7
370
    15
100
AcDbLine
 10
1.2023058653
 20
5.0837046394
 30
0.0
 11
1.1942598249
 21
5.0837046394
 31
0.0
  0
LINE
  5
DA
330
1F
100
AcDbEntity
  8
0
  6
Continuous
 62
     7
370
    15
100
AcDbLine
 10
9.1942597282
 20
5.0837046394
 30
0.0
 11
9.1942597282
 21
9.2087047178
 31
0.0
  0
LINE
  5
DB
330
1F
100
AcDbEntity
  8
0
  6
Continuous
 62
     7
370
    15
100
AcDbLine
 10
1.1942598249
 20
5.0837046394
 30
0.0
 11
1.1942598249
 21
9.2087047178
 31
0.0
  0
LINE
  5
DC
330
1F
100
AcDbEntity
  8
0
  6
Continuous
 62
     7
370
    15
100
AcDbLine
 10
9.1942597282
 20
9.2087047178
 30
0.0
 11
1.1942598249
 21
9.2087047178
 31
0.0
  0
ELLIPSE
  5
DD
330
1F
100
AcDbEntity
  8
0
  6
Continuous
 62
     7
370
    15
100
AcDbEllipse
 10
9.1393101874
 20
9.1537550518
 30
0.0
 11
0.02215093073525054
 21
0.02215093073524876
 31
0.0
210
0.0
220
0.0
230
1.0
 40
0.9975692298
 41
5.498396131367798
 42
7.067974482991483
  0
LINE
  5
DE
330
1F
100
AcDbEntity
  8
0
  6
Continuous
 62
     7
370
    15
100
AcDbLine
 10
9.1705982682
 20
9.1538121253
 30
0.0
 11
9.1862136878
 21
9.1538121253
 31
0.0
  0
LINE
  5
DF
330
1F
100
AcDbEntity
  8
0
  6
Continuous
 62
     7
370
    15
100
AcDbLine
 10
1.2179212849
 20
5.0837046394
 30
0.0
 11
1.2179212849
 21
9.1538121253
 31
0.0
  0
LINE
  5
E0
330
1F
100
AcDbEntity
  8
0
  6
Continuous
 62
     7
370
    15
100
AcDbLine
 10
1.2179212849
 20
5.0837046394
 30
0.0
 11
1.2023058653
 21
5.0837046394
 31
0.0
  0
LINE
  5
E1
330
1F
100
AcDbEntity
  8
0
  6
Continuous
 62
     7
370
    15
100
AcDbLine
 10
9.1705982682
 20
5.0837046394
 30
0.0
 11
9.1705982682
 21
9.1538121253
 31
0.0
  0
LINE
  5
E2
330
1F
100
AcDbEntity
  8
0
  6
Continuous
 62
     7
370
    15
100
AcDbLine
 10
9.1705982682
 20
5.0837046394
 30
0.0
 11
9.1862136878
 21
5.0837046394
 31
0.0
  0
ELLIPSE
  5
E3
330
1F
100
AcDbEntity
  8
0
  6
Continuous
 62
     7
370
    15
100
AcDbEllipse
 10
1.2028514303
 20
5.0837046409
 30
0.0
 11
0.0
 21
0.03124999999999911
 31
0.0
210
0.0
220
0.0
230
1.0
 40
0.0174603847
 41
1.570796326794897
 42
3.141592653589786
  0
ELLIPSE
  5
E4
330
1F
100
AcDbEntity
  8
0
  6
Continuous
 62
     7
370
    15
100
AcDbEllipse
 10
1.2184669119
 20
5.0837046409
 30
0.0
 11
0.0
 21
0.015625
 31
0.0
210
0.0
220
0.0
230
1.0
 40
0.0349207695
 41
1.570796326794897
 42
3.14159265358979
  0
ARC
  5
E5
330
1F
100
AcDbEntity
  8
0
  6
Continuous
 62
     7
370
    15
100
AcDbCircle
 10
1.2028467645
 20
5.0680747561
 30
0.0
 40
0.0156201148069551
100
AcDbArc
 50
270.0172195439
 51
0.0179169551
  0
LINE
  5
E6
330
1F
100
AcDbEntity
  8
0
  6
Continuous
 62
     7
370
    15
100
AcDbLine
 10
1.1942598249
 20
5.052454642
 30
0.0
 11
1.202851459
 21
5.052454642
 31
0.0
  0
LINE
  5
E7
330
1F
100
AcDbEntity
  8
0
  6
Continuous
 62
     7
370
    15
100
AcDbLine
 10
1.1942598249
 20
5.0837046394
 30
0.0
 11
1.1942598249
 21
5.052454642
 31
0.0
  0
LINE
  5
E8
330
1F
100
AcDbEntity
  8
0
  6
Continuous
 62
     7
370
    15
100
AcDbLine
 10
9.1942597282
 20
5.052454642
 30
0.0
 11
9.1856680941
 21
5.052454642
 31
0.0
  0
ELLIPSE
  5
E9
330
1F
100
AcDbEntity
  8
0
  6
Continuous
 62
     7
370
    15
100
AcDbEllipse
 10
9.1856681228
 20
5.0837046409
 30
0.0
 11
0.0
 21
0.03124999999999911
 31
0.0
210
0.0
220
0.0
230
1.0
 40
0.0174603847
 41
3.141592653589786
 42
4.71238898038469
  0
LINE
  5
EA
330
1F
100
AcDbEntity
  8
0
  6
Continuous
 62
     7
370
    15
100
AcDbLine
 10
9.1942597282
 20
5.0837046394
 30
0.0
 11
9.1942597282
 21
5.052454642
 31
0.0
  0
ELLIPSE
  5
EB
330
1F
100
AcDbEntity
  8
0
  6
Continuous
 62
     7
370
    15
100
AcDbEllipse
 10
9.1700526411
 20
5.0837046409
 30
0.0
 11
0.0
 21
0.015625
 31
0.0
210
0.0
220
0.0
230
1.0
 40
0.0349207695
 41
3.14159265358979
 42
4.71238898038469
  0
ARC
  5
EC
330
1F
100
AcDbEntity
  8
0
  6
Continuous
 62
     7
370
    15
100
AcDbCircle
 10
9.1856727885
 20
5.0680747561
 30
0.0
 40
0.015620114806954
100
AcDbArc
 50
179.9820830449
 51
269.9827804561
  0
LINE
  5
ED
330
1F
100
AcDbEntity
  8
0
  6
Continuous
 62
     7
370
    15
100
AcDbLine
 10
9.1705982682
 20
9.1538121253
 30
0.0
 11
9.1670967887
 21
9.1503106457
 31
0.0
  0
ELLIPSE
  5
EE
330
1F
100
AcDbEntity
  8
0
  6
Continuous
 62
     7
370
    15
100
AcDbEllipse
 10
9.135839936
 20
9.1502848003
 30
0.0
 11
0.02210679224014456
 21
0.02210679224015522
 31
0.0
210
0.0
220
0.0
230
1.0
 40
0.9995609798
 41
5.498396131367521
 42
7.067974482991197
  0
LINE
  5
EF
330
1F
100
AcDbEntity
  8
0
  6
Continuous
 62
     7
370
    15
100
AcDbLine
 10
9.1358659494
 20
9.1815417783
 30
0.0
 11
9.139367429
 21
9.1850432578
 31
0.0
  0
ELLIPSE
  5
F0
330
1F
100
AcDbEntity
  8
0
  6
Continuous
 62
     7
370
    15
100
AcDbEllipse
 10
1.2526796171
 20
9.1502848003
 30
0.0
 11
0.0221067922401439
 21
-0.02210679224015522
 31
0.0
210
0.0
220
0.0
230
1.0
 40
0.9995609798
 41
2.356803477778202
 42
3.926381829401896
  0
LINE
  5
F1
330
1F
100
AcDbEntity
  8
0
  6
Continuous
 62
     7
370
    15
100
AcDbLine
 10
1.2179212849
 20
9.1538121253
 30
0.0
 11
1.2214227644
 21
9.1503106457
 31
0.0
  0
LINE
  5
F2
330
1F
100
AcDbEntity
  8
0
  6
Continuous
 62
     7
370
    15
100
AcDbLine
 10
1.2526536036
 20
9.1815417783
 30
0.0
 11
1.2491521241
 21
9.1850432578
 31
0.0
  0
LINE
  5
F3
330
1F
100
AcDbEntity
  8
0
  6
Continuous
 62
     7
370
    15
100
AcDbLine
 10
1.2526536036
 20
9.1815417783
 30
0.0
 11
9.1358659494
 21
9.1815417783
 31
0.0
  0
LINE
  5
F4
330
1F
100
AcDbEntity
  8
0
  6
Continuous
 62
     7
370
    15
100
AcDbLine
 10
9.1672152939
 20
5.0680796407
 30
0.0
 11
9.1700526745
 21
5.0680796407
 31
0.0
  0
ELLIPSE
  5
F5
330
1F
100
AcDbEntity
  8
0
  6
Continuous
 62
     7
370
    15
100
AcDbEllipse
 10
9.1672153286
 20
5.0399546409
 30
0.0
 11
0.0
 21
0.02812499999999929
 31
0.0
210
0.0
220
0.0
230
1.0
 40
0.0349207695
 41
0.0
 42
0.4823169461703368
  0
LINE
  5
F6
330
1F
100
AcDbEntity
  8
0
  6
Continuous
 62
     7
370
    15
100
AcDbLine
 10
9.1667597525
 20
5.2712046508
 30
0.0
 11
9.1667597525
 21
5.0648712161
 31
0.0
  0
LINE
  5
F7
330
1F
100
AcDbEntity
  8
0
  6
Continuous
 62
     7
370
    15
100
AcDbLine
 10
9.1660437341
 20
5.2722794484
 30
0.0
 11
9.1667597525
 21
5.2712046508
 31
0.0
  0
ELLIPSE
  5
F8
330
1F
100
AcDbEntity
  8
0
  6
Continuous
 62
     7
370
    15
100
AcDbEllipse
 10
9.1660618688
 20
5.2822657581
 30
0.0
 11
0.0
 21
0.009999999999999787
 31
0.0
210
0.0
220
0.0
230
1.0
 40
0.0349207695
 41
1.445629824520194
 42
3.089232776027982
  0
LINE
  5
F9
330
1F
100
AcDbEntity
  8
0
  6
Continuous
 62
     7
370
    15
100
AcDbLine
 10
9.1670967887
 20
5.5979068901
 30
0.0
 11
9.1657154979
 21
5.2835141686
 31
0.0
  0
LINE
  5
FA
330
1F
100
AcDbEntity
  8
0
  6
Continuous
 62
     7
370
    15
100
AcDbLine
 10
9.1670967887
 20
9.1503106457
 30
0.0
 11
9.1670967887
 21
5.5979068901
 31
0.0
  0
LINE
  5
FB
330
1F
100
AcDbEntity
  8
0
  6
Continuous
 62
     7
370
    15
100
AcDbLine
 10
1.2214227644
 20
9.1503106457
 30
0.0
 11
1.2214227644
 21
5.5979068901
 31
0.0
  0
LINE
  5
FC
330
1F
100
AcDbEntity
  8
0
  6
Continuous
 62
     7
370
    15
100
AcDbLine
 10
1.2214227644
 20
5.5979068901
 30
0.0
 11
1.2228040551
 21
5.2835141686
 31
0.0
  0
ELLIPSE
  5
FD
330
1F
100
AcDbEntity
  8
0
  6
Continuous
 62
     7
370
    15
100
AcDbEllipse
 10
1.2224576843
 20
5.2822657581
 30
0.0
 11
0.0
 21
0.009999999999999787
 31
0.0
210
0.0
220
0.0
230
1.0
 40
0.0349207695
 41
3.193952531152604
 42
4.837555482659239
  0
LINE
  5
FE
330
1F
100
AcDbEntity
  8
0
  6
Continuous
 62
     7
370
    15
100
AcDbLine
 10
1.2224758189
 20
5.2722794484
 30
0.0
 11
1.2217598005
 21
5.2712046508
 31
0.0
  0
LINE
  5
FF
330
1F
100
AcDbEntity
  8
0
  6
Continuous
 62
     7
370
    15
100
AcDbLine
 10
1.2217598005
 20
5.2712046508
 30
0.0
 11
1.2217598005
 21
5.0648712161
 31
0.0
  0
ELLIPSE
  5
100
330
1F
100
AcDbEntity
  8
0
  6
Continuous
 62
     7
370
    15
100
AcDbEllipse
 10
1.2213042245
 20
5.0399546409
 30
0.0
 11
0.0
 21
0.02812499999999929
 31
0.0
210
0.0
220
0.0
230
1.0
 40
0.0349207695
 41
5.800868361007741
 42
6.283185307179586
  0
LINE
  5
101
330
1F
100
AcDbEntity
  8
0
  6
Continuous
 62
     7
370
    15
100
AcDbLine
 10
1.2213042591
 20
5.0680796407
 30
0.0
 11
1.2184668786
 21
5.0680796407
 31
0.0
  0
LINE
  5
102
330
1F
100
AcDbEntity
  8
0
  6
Continuous
 62
     7
370
    15
100
AcDbLine
 10
1.202851459
 20
5.052454642
 30
0.0
 11
1.2056888395
 21
5.052454642
 31
0.0
  0
ARC
  5
103
330
1F
100
AcDbEntity
  8
0
  6
Continuous
 62
     7
370
    15
100
AcDbCircle
 10
1.2056841451
 20
5.0680747561
 30
0.0
 40
0.0156201148069551
100
AcDbArc
 50
270.0172195439
 51
0.0179169551
  0
LINE
  5
104
330
1F
100
AcDbEntity
  8
0
  6
Continuous
 62
     7
370
    15
100
AcDbLine
 10
9.1856680941
 20
5.052454642
 30
0.0
 11
9.1828307136
 21
5.052454642
 31
0.0
  0
ARC
  5
105
330
1F
100
AcDbEntity
  8
0
  6
Continuous
 62
     7
370
    15
100
AcDbCircle
 10
9.182835408
 20
5.0680747561
 30
0.0
 40
0.0156201148069593
100
AcDbArc
 50
179.9820830449
 51
269.9827804561
  0
ELLIPSE
  5
106
330
1F
100
AcDbEntity
  8
0
  6
Continuous
 62
     7
370
    15
100
AcDbEllipse
 10
1.2056887428
 20
5.0399546409
 30
0.0
 11
0.0
 21
0.01250000000000018
 31
0.0
210
0.0
220
0.0
230
1.0
 40
0.0785717314
 41
4.712388980384691
 42
6.283185307179586
  0
LWPOLYLINE
  5
107
330
1F
100
AcDbEntity
  8
0
  6
Continuous
 62
     7
370
    15
100
AcDbPolyline
 90
        5
 70
   128
 43
0.0
 10
1.2066709082
 20
5.0399546431
 10
1.2067122677
 20
5.0399916118
 10
1.2152874753
 20
5.0486127989
 10
1.220274671
 20
5.0570587122
 10
1.2217598005
 20
5.0648712161
  0
ELLIPSE
  5
108
330
1F
100
AcDbEntity
  8
0
  6
Continuous
 62
     7
370
    15
100
AcDbEllipse
 10
9.1828308103
 20
5.0399546409
 30
0.0
 11
0.0
 21
0.01250000000000018
 31
0.0
210
0.0
220
0.0
230
1.0
 40
0.0785717314
 41
0.0
 42
1.570796326794897
  0
LWPOLYLINE
  5
109
330
1F
100
AcDbEntity
  8
0
  6
Continuous
 62
     7
370
    15
100
AcDbPolyline
 90
        5
 70
   128
 43
0.0
 10
9.1818486449
 20
5.0399546431
 10
9.1818072854
 20
5.0399916118
 10
9.1732320778
 20
5.0486127989
 10
9.1682448821
 20
5.0570587122
 10
9.1667597525
 20
5.0648712161
  0
LINE
  5
10A
330
1F
100
AcDbEntity
  8
0
  6
Continuous
 62
     7
370
    15
100
AcDbLine
 10
9.1942597282
 20
5.0399546431
 30
0.0
 11
9.1818486449
 21
5.0399546431
 31
0.0
  0
LINE
  5
10B
330
1F
100
AcDbEntity
  8
0
  6
Continuous
 62
     7
370
    15
100
AcDbLine
 10
9.1942597282
 20
5.052454642
 30
0.0
 11
9.1942597282
 21
5.0399546431
 31
0.0
  0
LINE
  5
10C
330
1F
100
AcDbEntity
  8
0
  6
Continuous
 62
     7
370
    15
100
AcDbLine
 10
1.1942598249
 20
5.0399546431
 30
0.0
 11
1.2066709082
 21
5.0399546431
 31
0.0
  0
LINE
  5
10D
330
1F
100
AcDbEntity
  8
0
  6
Continuous
 62
     7
370
    15
100
AcDbLine
 10
1.1942598249
 20
5.052454642
 30
0.0
 11
1.1942598249
 21
5.0399546431
 31
0.0
  0
LINE
  5
10E
330
1F
100
AcDbEntity
  8
0
  6
Continuous
 62
     7
370
    15
100
AcDbLine
 10
9.1358659494
 20
9.1715477337
 30
0.0
 11
9.1358659494
 21
9.1815417783
 31
0.0
  0
LINE
  5
10F
330
1F
100
AcDbEntity
  8
0
  6
Continuous
 62
     7
370
    15
100
AcDbLine
 10
9.1358659494
 20
9.1715477337
 30
0.0
 11
1.2526536036
 21
9.1715477337
 31
0.0
  0
LINE
  5
110
330
1F
100
AcDbEntity
  8
0
  6
Continuous
 62
     7
370
    15
100
AcDbLine
 10
1.2526536036
 20
9.1715477337
 30
0.0
 11
1.2526536036
 21
9.1815417783
 31
0.0
  0
ELLIPSE
  5
111
330
1F
100
AcDbEntity
  8
0
  6
Continuous
 62
     7
370
    15
100
AcDbEllipse
 10
9.135839936
 20
9.1502848003
 30
0.0
 11
0.01504433157273333
 21
0.01504433157273155
 31
0.0
210
0.0
220
0.0
230
1.0
 40
0.998782766
 41
5.498396131367824
 42
7.067974482991494
  0
LINE
  5
112
330
1F
100
AcDbEntity
  8
0
  6
Continuous
 62
     7
370
    15
100
AcDbLine
 10
9.1571027441
 20
9.1503106457
 30
0.0
 11
9.1670967887
 21
9.1503106457
 31
0.0
  0
ELLIPSE
  5
113
330
1F
100
AcDbEntity
  8
0
  6
Continuous
 62
     7
370
    15
100
AcDbEllipse
 10
1.2526796171
 20
9.1502848003
 30
0.0
 11
-0.01504433157273266
 21
0.01504433157273155
 31
0.0
210
0.0
220
0.0
230
1.0
 40
0.998782766
 41
5.498396131367725
 42
7.06797448299138
  0
LINE
  5
114
330
1F
100
AcDbEntity
  8
0
  6
Continuous
 62
     7
370
    15
100
AcDbLine
 10
1.231416809
 20
9.1503106457
 30
0.0
 11
1.2214227644
 21
9.1503106457
 31
0.0
  0
LINE
  5
115
330
1F
100
AcDbEntity
  8
0
  6
Continuous
 62
     7
370
    15
100
AcDbLine
 10
9.1571027441
 20
5.5212046295
 30
0.0
 11
9.1571027441
 21
9.1503106457
 31
0.0
  0
ELLIPSE
  5
116
330
1F
100
AcDbEntity
  8
0
  6
Continuous
 62
     7
370
    15
100
AcDbEllipse
 10
9.1571028888
 20
5.6006805631
 30
0.0
 11
0.0
 21
0.07947592220716881
 31
0.0
210
0.0
220
0.0
230
1.0
 40
0.1258242713
 41
3.141592653589792
 42
4.677482395344803
  0
LINE
  5
117
330
1F
100
AcDbEntity
  8
0
  6
Continuous
 62
     7
370
    15
100
AcDbLine
 10
1.231416809
 20
5.5212046295
 30
0.0
 11
1.231416809
 21
9.1503106457
 31
0.0
  0
ELLIPSE
  5
118
330
1F
100
AcDbEntity
  8
0
  6
Continuous
 62
     7
370
    15
100
AcDbEllipse
 10
1.2314166643
 20
5.6006805631
 30
0.0
 11
0.0
 21
0.07947592220716881
 31
0.0
210
0.0
220
0.0
230
1.0
 40
0.1258242713
 41
1.605702911834786
 42
3.141592653589792
  0
LINE
  5
119
330
1F
100
AcDbEntity
  8
0
  6
Continuous
 62
     7
370
    15
100
AcDbLine
 10
1.231416809
 20
5.5212046295
 30
0.0
 11
1.3493744596
 21
5.5212046295
 31
0.0
  0
ELLIPSE
  5
11A
330
1F
100
AcDbEntity
  8
0
  6
Continuous
 62
     7
370
    15
100
AcDbEllipse
 10
1.3493744273
 20
5.272842384
 30
0.0
 11
0.0
 21
0.2483622568974049
 31
0.0
210
0.0
220
0.0
230
1.0
 40
0.1258242713
 41
4.79965544298441
 42
6.283185307179586
  0
LINE
  5
11B
330
1F
100
AcDbEntity
  8
0
  6
Continuous
 62
     7
370
    15
100
AcDbLine
 10
1.3806264186
 20
5.2835141686
 30
0.0
 11
1.3805055667
 21
5.2944885952
 31
0.0
  0
LINE
  5
11C
330
1F
100
AcDbEntity
  8
0
  6
Continuous
 62
     7
370
    15
100
AcDbLine
 10
1.3806264186
 20
5.2835141686
 30
0.0
 11
1.2228040551
 21
5.2835141686
 31
0.0
  0
LINE
  5
11D
330
1F
100
AcDbEntity
  8
0
  6
Continuous
 62
     7
370
    15
100
AcDbLine
 10
9.0078931345
 20
5.2835141686
 30
0.0
 11
9.0080139864
 21
5.2944885952
 31
0.0
  0
ELLIPSE
  5
11E
330
1F
100
AcDbEntity
  8
0
  6
Continuous
 62
     7
370
    15
100
AcDbEllipse
 10
9.0391451257
 20
5.272842384
 30
0.0
 11
0.0
 21
0.2483622568974049
 31
0.0
210
0.0
220
0.0
230
1.0
 40
0.1258242713
 41
0.0
 42
1.48352986419518
  0
LINE
  5
11F
330
1F
100
AcDbEntity
  8
0
  6
Continuous
 62
     7
370
    15
100
AcDbLine
 10
9.1571027441
 20
5.5212046295
 30
0.0
 11
9.0391450934
 21
5.5212046295
 31
0.0
  0
LINE
  5
120
330
1F
100
AcDbEntity
  8
0
  6
Continuous
 62
     7
370
    15
100
AcDbLine
 10
9.0078931345
 20
5.2835141686
 30
0.0
 11
9.1657154979
 21
5.2835141686
 31
0.0
  0
LINE
  5
121
330
1F
100
AcDbEntity
  8
0
  6
Continuous
 62
     7
370
    15
100
AcDbLine
 10
9.0391450934
 20
8.7734101197
 30
0.0
 11
9.0391450934
 21
5.5212046295
 31
0.0
  0
ELLIPSE
  5
122
330
1F
100
AcDbEntity
  8
0
  6
Continuous
 62
     7
370
    15
100
AcDbEllipse
 10
8.7568207964
 20
8.7712656607
 30
0.0
 11
0.2003902334691343
 21
0.2003902334691343
 31
0.0
210
0.0
220
0.0
230
0.9999999999999998
 40
0.9924325091
 41
5.501585242055437
 42
7.064785372303763
  0
LINE
  5
123
330
1F
100
AcDbEntity
  8
0
  6
Continuous
 62
     7
370
    15
100
AcDbLine
 10
1.6295541297
 20
9.0535900831
 30
0.0
 11
8.7589654234
 21
9.0535900831
 31
0.0
  0
ELLIPSE
  5
124
330
1F
100
AcDbEntity
  8
0
  6
Continuous
 62
     7
370
    15
100
AcDbEllipse
 10
1.6316987567
 20
8.7712656607
 30
0.0
 11
-0.2003902334691345
 21
0.2003902334691343
 31
0.0
210
0.0
220
0.0
230
1.0
 40
0.9924325091
 41
5.501585242055434
 42
7.064785372303765
  0
LINE
  5
125
330
1F
100
AcDbEntity
  8
0
  6
Continuous
 62
     7
370
    15
100
AcDbLine
 10
1.3493744596
 20
8.7734101197
 30
0.0
 11
1.3493744596
 21
5.5212046295
 31
0.0
  0
ELLIPSE
  5
126
330
1F
100
AcDbEntity
  8
0
  6
Continuous
 62
     7
370
    15
100
AcDbEllipse
 10
8.7568207964
 20
8.7712656607
 30
0.0
 11
0.1784603660603175
 21
0.1784603660603192
 31
0.0
210
0.0
220
0.0
230
1.0
 40
0.990565576
 41
5.501585242055424
 42
7.064785372303767
  0
LINE
  5
127
330
1F
100
AcDbEntity
  8
0
  6
Continuous
 62
     7
370
    15
100
AcDbLine
 10
8.7589654234
 20
9.022458976
 30
0.0
 11
8.7589654234
 21
9.0535900831
 31
0.0
  0
LINE
  5
128
330
1F
100
AcDbEntity
  8
0
  6
Continuous
 62
     7
370
    15
100
AcDbLine
 10
9.0080139864
 20
8.7734101197
 30
0.0
 11
9.0391450934
 21
8.7734101197
 31
0.0
  0
LINE
  5
129
330
1F
100
AcDbEntity
  8
0
  6
Continuous
 62
     7
370
    15
100
AcDbLine
 10
8.7589654234
 20
9.022458976
 30
0.0
 11
1.6295541297
 21
9.022458976
 31
0.0
  0
LINE
  5
12A
330
1F
100
AcDbEntity
  8
0
  6
Continuous
 62
     7
370
    15
100
AcDbLine
 10
1.6295541297
 20
9.022458976
 30
0.0
 11
1.6295541297
 21
9.0535900831
 31
0.0
  0
ELLIPSE
  5
12B
330
1F
100
AcDbEntity
  8
0
  6
Continuous
 62
     7
370
    15
100
AcDbEllipse
 10
1.6316987567
 20
8.7712656607
 30
0.0
 11
0.1784603660603168
 21
-0.1784603660603192
 31
0.0
210
0.0
220
0.0
230
1.0
 40
0.990565576
 41
2.359992588465632
 42
3.923192718713981
  0
LINE
  5
12C
330
1F
100
AcDbEntity
  8
0
  6
Continuous
 62
     7
370
    15
100
AcDbLine
 10
1.3805055667
 20
8.7734101197
 30
0.0
 11
1.3493744596
 21
8.7734101197
 31
0.0
  0
LINE
  5
12D
330
1F
100
AcDbEntity
  8
0
  6
Continuous
 62
     7
370
    15
100
AcDbLine
 10
9.0080139864
 20
5.2944885952
 30
0.0
 11
9.0080139864
 21
8.7734101197
 31
0.0
  0
LINE
  5
12E
330
1F
100
AcDbEntity
  8
0
  6
Continuous
 62
     7
370
    15
100
AcDbLine
 10
1.3805055667
 20
5.2944885952
 30
0.0
 11
1.3805055667
 21
8.7734101197
 31
0.0
  0
LINE
  5
12F
330
1F
100
AcDbEntity
  8
0
  6
Continuous
 62
     7
370
    15
100
AcDbLine
 10
1.3493744596
 20
5.2712046508
 30
0.0
 11
1.3493744596
 21
5.0365205744
 31
0.0
  0
LINE
  5
130
330
1F
100
AcDbEntity
  8
0
  6
Continuous
 62
     7
370
    15
100
AcDbLine
 10
1.3493744596
 20
5.0365205744
 30
0.0
 11
1.1942598249
 21
5.0365205744
 31
0.0
  0
LINE
  5
131
330
1F
100
AcDbEntity
  8
0
  6
Continuous
 62
     7
370
    15
100
AcDbLine
 10
1.3493744596
 20
5.2712046508
 30
0.0
 11
1.2217598005
 21
5.2712046508
 31
0.0
  0
LINE
  5
132
330
1F
100
AcDbEntity
  8
0
  6
Continuous
 62
     7
370
    15
100
AcDbLine
 10
1.1942598249
 20
5.0365205744
 30
0.0
 11
1.1942598249
 21
5.0399546431
 31
0.0
  0
ELLIPSE
  5
133
330
1F
100
AcDbEntity
  8
0
  6
Continuous
 62
     7
370
    15
100
AcDbEllipse
 10
9.0391451257
 20
5.272842384
 30
0.0
 11
0.03125
 21
0.0
 31
0.0
210
0.0
220
0.0
230
1.0
 40
0.0524077793
 41
3.49246558012934
 42
4.712388980384691
  0
LINE
  5
134
330
1F
100
AcDbEntity
  8
0
  6
Continuous
 62
     7
370
    15
100
AcDbLine
 10
9.0391450934
 20
5.2712046508
 30
0.0
 11
9.0391450934
 21
5.0365205744
 31
0.0
  0
LINE
  5
135
330
1F
100
AcDbEntity
  8
0
  6
Continuous
 62
     7
370
    15
100
AcDbLine
 10
9.0391450934
 20
5.0365205744
 30
0.0
 11
9.0080139864
 21
5.0365205744
 31
0.0
  0
LINE
  5
136
330
1F
100
AcDbEntity
  8
0
  6
Continuous
 62
     7
370
    15
100
AcDbLine
 10
9.0080139864
 20
5.0365205744
 30
0.0
 11
9.0080139864
 21
5.2770645398
 31
0.0
  0
LWPOLYLINE
  5
137
330
1F
100
AcDbEntity
  8
0
  6
Continuous
 62
     7
370
    15
100
AcDbPolyline
 90
        4
 70
   128
 43
0.0
 10
9.0080139864
 20
5.2770645398
 10
9.00827593
 20
5.2745822718
 10
9.0088473368
 20
5.2729395141
 10
9.0097991924
 20
5.2722794484
  0
LINE
  5
138
330
1F
100
AcDbEntity
  8
0
  6
Continuous
 62
     7
370
    15
100
AcDbLine
 10
1.3805055667
 20
5.0365205744
 30
0.0
 11
1.3805055667
 21
5.2770645398
 31
0.0
  0
LINE
  5
139
330
1F
100
AcDbEntity
  8
0
  6
Continuous
 62
     7
370
    15
100
AcDbLine
 10
1.3493744596
 20
5.0365205744
 30
0.0
 11
1.3805055667
 21
5.0365205744
 31
0.0
  0
ELLIPSE
  5
13A
330
1F
100
AcDbEntity
  8
0
  6
Continuous
 62
     7
370
    15
100
AcDbEllipse
 10
1.3493744273
 20
5.272842384
 30
0.0
 11
0.03124999999999978
 21
0.0
 31
0.0
210
0.0
220
0.0
230
1.0
 40
0.0524077793
 41
4.712388980384691
 42
5.932312380640331
  0
LWPOLYLINE
  5
13B
330
1F
100
AcDbEntity
  8
0
  6
Continuous
 62
     7
370
    15
100
AcDbPolyline
 90
        4
 70
   128
 43
0.0
 10
1.3805055667
 20
5.2770645398
 10
1.380243623
 20
5.2745822718
 10
1.3796722163
 20
5.2729395141
 10
1.3787203606
 20
5.2722794484
  0
LINE
  5
13C
330
1F
100
AcDbEntity
  8
0
  6
Continuous
 62
     7
370
    15
100
AcDbLine
 10
9.0391450934
 20
5.2712046508
 30
0.0
 11
9.1667597525
 21
5.2712046508
 31
0.0
  0
LINE
  5
13D
330
1F
100
AcDbEntity
  8
0
  6
Continuous
 62
     7
370
    15
100
AcDbLine
 10
9.1660437341
 20
5.2722794484
 30
0.0
 11
9.0097991924
 21
5.2722794484
 31
0.0
  0
LINE
  5
13E
330
1F
100
AcDbEntity
  8
0
  6
Continuous
 62
     7
370
    15
100
AcDbLine
 10
9.0391450934
 20
5.0365205744
 30
0.0
 11
9.1942597282
 21
5.0365205744
 31
0.0
  0
LINE
  5
13F
330
1F
100
AcDbEntity
  8
0
  6
Continuous
 62
     7
370
    15
100
AcDbLine
 10
9.1942597282
 20
5.0365205744
 30
0.0
 11
9.1942597282
 21
5.0399546431
 31
0.0
  0
LINE
  5
140
330
1F
100
AcDbEntity
  8
0
  6
Continuous
 62
     7
370
    15
100
AcDbLine
 10
1.2224758189
 20
5.2722794484
 30
0.0
 11
1.3787203606
 21
5.2722794484
 31
0.0
  0
ELLIPSE
  5
141
330
1F
100
AcDbEntity
  8
0
  6
Continuous
 62
     7
370
    15
100
AcDbEllipse
 10
9.036411105
 20
5.036520574
 30
0.0
 11
0.0
 21
0.06250000000000089
 31
0.0
210
0.0
220
0.0
230
1.0
 40
0.0437443318
 41
3.17649923863054
 42
4.71238898038469
  0
ARC
  5
142
330
1F
100
AcDbEntity
  8
0
  6
Continuous
 62
     7
370
    15
100
AcDbCircle
 10
9.036667949
 20
5.0053507566
 30
0.0
 40
0.0312925252250989
100
AcDbArc
 50
180.1119551022
 51
269.7045556714
  0
ELLIPSE
  5
143
330
1F
100
AcDbEntity
  8
0
  6
Continuous
 62
     7
370
    15
100
AcDbEllipse
 10
9.0052800207
 20
5.036520574
 30
0.0
 11
0.0
 21
0.03125000000000089
 31
0.0
210
0.0
220
0.0
230
1.0
 40
0.0874886635
 41
3.176499238629712
 42
4.712388980384691
  0
LINE
  5
144
330
1F
100
AcDbEntity
  8
0
  6
Continuous
 62
     7
370
    15
100
AcDbLine
 10
9.1942597282
 20
4.9740586474
 30
0.0
 11
9.0365065906
 21
4.9740586474
 31
0.0
  0
LINE
  5
145
330
1F
100
AcDbEntity
  8
0
  6
Continuous
 62
     7
370
    15
100
AcDbLine
 10
9.1942597282
 20
5.0365205744
 30
0.0
 11
9.1942597282
 21
4.9740586474
 31
0.0
  0
ELLIPSE
  5
146
330
1F
100
AcDbEntity
  8
0
  6
Continuous
 62
     7
370
    15
100
AcDbEllipse
 10
1.3832395324
 20
5.036520574
 30
0.0
 11
0.0
 21
0.03125000000000089
 31
0.0
210
0.0
220
0.0
230
1.0
 40
0.0874886635
 41
1.570796326794897
 42
3.106686068549692
  0
ARC
  5
147
330
1F
100
AcDbEntity
  8
0
  6
Continuous
 62
     7
370
    15
100
AcDbCircle
 10
1.3518516041
 20
5.0053507566
 30
0.0
 40
0.0312925252250989
100
AcDbArc
 50
270.2954443286
 51
359.8880448978
  0
ELLIPSE
  5
148
330
1F
100
AcDbEntity
  8
0
  6
Continuous
 62
     7
370
    15
100
AcDbEllipse
 10
1.3521084481
 20
5.036520574
 30
0.0
 11
0.0
 21
0.06250000000000089
 31
0.0
210
0.0
220
0.0
230
1.0
 40
0.0437443318
 41
1.570796326794897
 42
3.106686068549613
  0
LINE
  5
149
330
1F
100
AcDbEntity
  8
0
  6
Continuous
 62
     7
370
    15
100
AcDbLine
 10
1.1942598249
 20
4.9740586474
 30
0.0
 11
1.3520129625
 21
4.9740586474
 31
0.0
  0
LINE
  5
14A
330
1F
100
AcDbEntity
  8
0
  6
Continuous
 62
     7
370
    15
100
AcDbLine
 10
1.1942598249
 20
5.0365205744
 30
0.0
 11
1.1942598249
 21
4.9740586474
 31
0.0
  0
ELLIPSE
  5
14B
330
1F
100
AcDbEntity
  8
0
  6
Continuous
 62
     7
370
    15
100
AcDbEllipse
 10
1.379758278
 20
5.2822657581
 30
0.0
 11
0.0
 21
0.009999999999999787
 31
0.0
210
0.0
220
0.0
230
1.0
 40
0.0874886635
 41
4.165395258427834
 42
4.837555482659734
  0
ELLIPSE
  5
14C
330
1F
100
AcDbEntity
  8
0
  6
Continuous
 62
     7
370
    15
100
AcDbEllipse
 10
9.0087612751
 20
5.2822657581
 30
0.0
 11
0.0
 21
0.009999999999999787
 31
0.0
210
0.0
220
0.0
230
1.0
 40
0.0874886635
 41
1.445629824520014
 42
2.117790048751683
  0
LINE
  5
14D
330
1F
100
AcDbEntity
  8
0
  6
Continuous
 62
     7
370
    15
100
AcDbLine
 10
1.6412192749
 20
9.0107938308
 30
0.0
 11
1.6295541297
 21
9.022458976
 31
0.0
  0
ELLIPSE
  5
14E
330
1F
100
AcDbEntity
  8
0
  6
Continuous
 62
     7
370
    15
100
AcDbEllipse
 10
1.6425569757
 20
8.7604074417
 30
0.0
 11
-0.0974478041467024
 21
0.2307373440914766
 31
0.0
210
0.0
220
0.0
230
0.9999999999999998
 40
0.9978083275
 41
5.888140130365001
 42
7.451340260613331
  0
LINE
  5
14F
330
1F
100
AcDbEntity
  8
0
  6
Continuous
 62
     7
370
    15
100
AcDbLine
 10
1.3805055667
 20
8.7734101197
 30
0.0
 11
1.3925523342
 21
8.7613636456
 31
0.0
  0
ELLIPSE
  5
150
330
1F
100
AcDbEntity
  8
0
  6
Continuous
 62
     7
370
    15
100
AcDbEllipse
 10
8.7459625774
 20
8.7604074417
 30
0.0
 11
0.09744780414670194
 21
0.2307373440914766
 31
0.0
210
0.0
220
0.0
230
0.9999999999999999
 40
0.9978083275
 41
5.115030353745868
 42
6.678230483994199
  0
LINE
  5
151
330
1F
100
AcDbEntity
  8
0
  6
Continuous
 62
     7
370
    15
100
AcDbLine
 10
8.7473002782
 20
9.0107938308
 30
0.0
 11
8.7589654234
 21
9.022458976
 31
0.0
  0
LINE
  5
152
330
1F
100
AcDbEntity
  8
0
  6
Continuous
 62
     7
370
    15
100
AcDbLine
 10
9.0080139864
 20
8.7734101197
 30
0.0
 11
8.9959672189
 21
8.7613636456
 31
0.0
  0
LINE
  5
153
330
1F
100
AcDbEntity
  8
0
  6
Continuous
 62
     7
370
    15
100
AcDbLine
 10
1.6412192749
 20
9.0107938308
 30
0.0
 11
8.7473002782
 21
9.0107938308
 31
0.0
  0
LINE
  5
154
330
1F
100
AcDbEntity
  8
0
  6
Continuous
 62
     7
370
    15
100
AcDbLine
 10
1.3925523342
 20
8.7613636456
 30
0.0
 11
1.4003640039
 21
6.2044937827
 31
0.0
  0
ARC
  5
155
330
1F
100
AcDbEntity
  8
0
  6
Continuous
 62
     7
370
    15
100
AcDbCircle
 10
-9.6013696644
 20
6.1306846364
 30
0.0
 40
11.00198125340789
100
AcDbArc
 50
358.5581849486
 51
0.3843838852
  0
LINE
  5
156
330
1F
100
AcDbEntity
  8
0
  6
Continuous
 62
     7
370
    15
100
AcDbLine
 10
1.3971282813
 20
5.85385538
 30
0.0
 11
1.4016473225
 21
5.8475130733
 31
0.0
  0
LINE
  5
157
330
1F
100
AcDbEntity
  8
0
  6
Continuous
 62
     7
370
    15
100
AcDbLine
 10
1.4016473225
 20
5.8475130733
 30
0.0
 11
1.4144312281
 21
5.8295717672
 31
0.0
  0
LINE
  5
158
330
1F
100
AcDbEntity
  8
0
  6
Continuous
 62
     7
370
    15
100
AcDbLine
 10
1.4144312281
 20
5.8295717672
 30
0.0
 11
1.4144312281
 21
5.7663596774
 31
0.0
  0
LINE
  5
159
330
1F
100
AcDbEntity
  8
0
  6
Continuous
 62
     7
370
    15
100
AcDbLine
 10
1.4144312281
 20
5.7663596774
 30
0.0
 11
1.4133060144
 21
5.7659105893
 31
0.0
  0
ELLIPSE
  5
15A
330
1F
100
AcDbEntity
  8
0
  6
Continuous
 62
     7
370
    15
100
AcDbEllipse
 10
1.4133670492
 20
5.7459227531
 30
0.0
 11
0.0
 21
0.02000000000000046
 31
0.0
210
0.0
220
0.0
230
1.0
 40
0.0874886635
 41
0.0349065850399013
 42
1.570796326794897
  0
LINE
  5
15B
330
1F
100
AcDbEntity
  8
0
  6
Continuous
 62
     7
370
    15
100
AcDbLine
 10
1.4116173139
 20
5.7459227202
 30
0.0
 11
1.4116173139
 21
5.2652365231
 31
0.0
  0
ELLIPSE
  5
15C
330
1F
100
AcDbEntity
  8
0
  6
Continuous
 62
     7
370
    15
100
AcDbEllipse
 10
1.4133670492
 20
5.2652365286
 30
0.0
 11
0.0
 21
0.02000000000000046
 31
0.0
210
0.0
220
0.0
230
1.0
 40
0.0874886635
 41
1.570796326794897
 42
3.106686068549889
  0
LINE
  5
15D
330
1F
100
AcDbEntity
  8
0
  6
Continuous
 62
     7
370
    15
100
AcDbLine
 10
1.4133060144
 20
5.245248709
 30
0.0
 11
1.4144312281
 21
5.2447996025
 31
0.0
  0
LINE
  5
15E
330
1F
100
AcDbEntity
  8
0
  6
Continuous
 62
     7
370
    15
100
AcDbLine
 10
1.4144312281
 20
5.2447996025
 30
0.0
 11
1.4144312281
 21
5.1815875128
 31
0.0
  0
LINE
  5
15F
330
1F
100
AcDbEntity
  8
0
  6
Continuous
 62
     7
370
    15
100
AcDbLine
 10
1.4144312281
 20
5.1815875128
 30
0.0
 11
1.4014537247
 21
5.1633745098
 31
0.0
  0
LINE
  5
160
330
1F
100
AcDbEntity
  8
0
  6
Continuous
 62
     7
370
    15
100
AcDbLine
 10
1.4014537247
 20
5.1633745098
 30
0.0
 11
1.4009559438
 21
5.0003982613
 31
0.0
  0
LINE
  5
161
330
1F
100
AcDbEntity
  8
0
  6
Continuous
 62
     7
370
    15
100
AcDbLine
 10
1.4009559438
 20
5.0003982613
 30
0.0
 11
1.4010459961
 21
4.9981441628
 31
0.0
  0
LWPOLYLINE
  5
162
330
1F
100
AcDbEntity
  8
0
  6
Continuous
 62
     7
370
    15
100
AcDbPolyline
 90
        3
 70
   128
 43
0.0
 10
1.4010459961
 20
4.9981441628
 10
1.3910208585
 20
5.002145614
 10
1.3831440695
 20
5.0052896115
  0
LWPOLYLINE
  5
163
330
1F
100
AcDbEntity
  8
0
  6
Continuous
 62
     7
370
    15
100
AcDbPolyline
 90
        3
 70
   128
 43
0.0
 10
8.987473557
 20
4.9981441628
 10
8.9974986945
 20
5.002145614
 10
9.0053754835
 20
5.0052896115
  0
LINE
  5
164
330
1F
100
AcDbEntity
  8
0
  6
Continuous
 62
     7
370
    15
100
AcDbLine
 10
8.9875636093
 20
5.0003982613
 30
0.0
 11
8.987473557
 21
4.9981441628
 31
0.0
  0
LINE
  5
165
330
1F
100
AcDbEntity
  8
0
  6
Continuous
 62
     7
370
    15
100
AcDbLine
 10
8.9870658284
 20
5.1633745098
 30
0.0
 11
8.9875636093
 21
5.0003982613
 31
0.0
  0
LINE
  5
166
330
1F
100
AcDbEntity
  8
0
  6
Continuous
 62
     7
370
    15
100
AcDbLine
 10
8.974088325
 20
5.1815875128
 30
0.0
 11
8.9870658284
 21
5.1633745098
 31
0.0
  0
LINE
  5
167
330
1F
100
AcDbEntity
  8
0
  6
Continuous
 62
     7
370
    15
100
AcDbLine
 10
8.974088325
 20
5.2447996025
 30
0.0
 11
8.974088325
 21
5.1815875128
 31
0.0
  0
LINE
  5
168
330
1F
100
AcDbEntity
  8
0
  6
Continuous
 62
     7
370
    15
100
AcDbLine
 10
8.9752135386
 20
5.245248709
 30
0.0
 11
8.974088325
 21
5.2447996025
 31
0.0
  0
ELLIPSE
  5
169
330
1F
100
AcDbEntity
  8
0
  6
Continuous
 62
     7
370
    15
100
AcDbEllipse
 10
8.9751525039
 20
5.2652365286
 30
0.0
 11
0.0
 21
0.02000000000000046
 31
0.0
210
0.0
220
0.0
230
1.0
 40
0.0874886635
 41
3.176499238629734
 42
4.712388980384691
  0
LINE
  5
16A
330
1F
100
AcDbEntity
  8
0
  6
Continuous
 62
     7
370
    15
100
AcDbLine
 10
8.9769022391
 20
5.7459227202
 30
0.0
 11
8.9769022391
 21
5.2652365231
 31
0.0
  0
ELLIPSE
  5
16B
330
1F
100
AcDbEntity
  8
0
  6
Continuous
 62
     7
370
    15
100
AcDbEllipse
 10
8.9751525039
 20
5.7459227531
 30
0.0
 11
0.0
 21
0.02000000000000046
 31
0.0
210
0.0
220
0.0
230
1.0
 40
0.0874886635
 41
4.712388980384691
 42
6.24827872213997
  0
LINE
  5
16C
330
1F
100
AcDbEntity
  8
0
  6
Continuous
 62
     7
370
    15
100
AcDbLine
 10
8.974088325
 20
5.7663596774
 30
0.0
 11
8.9752135386
 21
5.7659105893
 31
0.0
  0
LINE
  5
16D
330
1F
100
AcDbEntity
  8
0
  6
Continuous
 62
     7
370
    15
100
AcDbLine
 10
8.974088325
 20
5.8295717672
 30
0.0
 11
8.974088325
 21
5.7663596774
 31
0.0
  0
LINE
  5
16E
330
1F
100
AcDbEntity
  8
0
  6
Continuous
 62
     7
370
    15
100
AcDbLine
 10
8.9868722306
 20
5.8475130733
 30
0.0
 11
8.974088325
 21
5.8295717672
 31
0.0
  0
LINE
  5
16F
330
1F
100
AcDbEntity
  8
0
  6
Continuous
 62
     7
370
    15
100
AcDbLine
 10
8.9913912717
 20
5.85385538
 30
0.0
 11
8.9868722306
 21
5.8475130733
 31
0.0
  0
ARC
  5
170
330
1F
100
AcDbEntity
  8
0
  6
Continuous
 62
     7
370
    15
100
AcDbCircle
 10
19.9898892175
 20
6.1306846364
 30
0.0
 40
11.00198125340267
100
AcDbArc
 50
179.6156161148
 51
181.4418150514
  0
LINE
  5
171
330
1F
100
AcDbEntity
  8
0
  6
Continuous
 62
     7
370
    15
100
AcDbLine
 10
8.9959672189
 20
8.7613636456
 30
0.0
 11
8.9881555491
 21
6.2044937827
 31
0.0
  0
LWPOLYLINE
  5
172
330
1F
100
AcDbEntity
  8
0
  6
Continuous
 62
     7
370
    15
100
AcDbPolyline
 90
        3
 70
   128
 43
0.0
 10
9.0365065906
 20
4.9740586474
 10
9.0264814531
 20
4.9700571972
 10
9.018604664
 20
4.9669132009
  0
ARC
  5
173
330
1F
100
AcDbEntity
  8
0
  6
Continuous
 62
     7
370
    15
100
AcDbCircle
 10
9.0187661919
 20
4.9982054791
 30
0.0
 40
0.0312926950100133
100
AcDbArc
 50
180.1122679647
 51
269.7042470131
  0
ARC
  5
174
330
1F
100
AcDbEntity
  8
0
  6
Continuous
 62
     7
370
    15
100
AcDbCircle
 10
1.3697533611
 20
4.9982054791
 30
0.0
 40
0.0312926950100115
100
AcDbArc
 50
270.2957529869
 51
359.8877320354
  0
LWPOLYLINE
  5
175
330
1F
100
AcDbEntity
  8
0
  6
Continuous
 62
     7
370
    15
100
AcDbPolyline
 90
        3
 70
   128
 43
0.0
 10
1.3520129625
 20
4.9740586474
 10
1.3620381
 20
4.9700571972
 10
1.369914889
 20
4.9669132009
  0
LWPOLYLINE
  5
176
330
1F
100
AcDbEntity
  8
0
  6
Continuous
 62
     7
370
    15
100
AcDbPolyline
 90
       12
 70
   128
 43
0.0
 10
9.018604664
 20
4.9669132009
 10
9.0162662377
 20
4.9663452385
 10
9.0121053525
 20
4.965780104
 10
9.0064939506
 20
4.9652501307
 10
8.9993601664
 20
4.9647383863
 10
8.9881672823
 20
4.9641200639
 10
8.9750797802
 20
4.9635619997
 10
8.960524455
 20
4.9630749477
 10
8.9368615283
 20
4.9624905078
 10
8.9116841392
 20
4.9620783592
 10
8.886076435
 20
4.9618381962
 10
8.8596494603
 20
4.9617581205
  0
LINE
  5
177
330
1F
100
AcDbEntity
  8
0
  6
Continuous
 62
     7
370
    15
100
AcDbLine
 10
1.1942598249
 20
4.9587046409
 30
0.0
 11
9.1942597282
 21
4.9587046409
 31
0.0
  0
LWPOLYLINE
  5
178
330
1F
100
AcDbEntity
  8
0
  6
Continuous
 62
     7
370
    15
100
AcDbPolyline
 90
       12
 70
   128
 43
0.0
 10
1.369914889
 20
4.9669132009
 10
1.3722533153
 20
4.9663452385
 10
1.3764142006
 20
4.965780104
 10
1.3820256025
 20
4.9652501307
 10
1.3891593867
 20
4.9647383863
 10
1.4003522707
 20
4.9641200639
 10
1.4134397729
 20
4.9635619997
 10
1.4279950981
 20
4.9630749477
 10
1.4516580247
 20
4.9624905078
 10
1.4768354139
 20
4.9620783592
 10
1.5024431181
 20
4.9618381962
 10
1.5288700928
 20
4.9617581205
  0
LINE
  5
179
330
1F
100
AcDbEntity
  8
0
  6
Continuous
 62
     7
370
    15
100
AcDbLine
 10
8.8596494603
 20
4.9617581205
 30
0.0
 11
1.5288700928
 21
4.9617581205
 31
0.0
  0
LINE
  5
17A
330
1F
100
AcDbEntity
  8
0
  6
Continuous
 62
     7
370
    15
100
AcDbLine
 10
9.1942597282
 20
4.9740586474
 30
0.0
 11
9.1942597282
 21
4.9587046409
 31
0.0
  0
LINE
  5
17B
330
1F
100
AcDbEntity
  8
0
  6
Continuous
 62
     7
370
    15
100
AcDbLine
 10
1.1942598249
 20
4.9740586474
 30
0.0
 11
1.1942598249
 21
4.9587046409
 31
0.0
  0
LWPOLYLINE
  5
17C
330
1F
100
AcDbEntity
  8
0
  6
Continuous
 62
     7
370
    15
100
AcDbPolyline
 90
       13
 70
   128
 43
0.0
 10
8.9959672189
 20
8.7613636456
 10
8.9936742587
 20
8.761903666
 10
8.9895151334
 20
8.7624351799
 10
8.983553789
 20
8.7629505606
 10
8.9758808643
 20
8.7634418882
 10
8.9666136913
 20
8.7639012429
 10
8.9558939485
 20
8.7643221714
 10
8.9438847272
 20
8.7646976337
 10
8.9307696521
 20
8.76502235
 10
8.9167490674
 20
8.7652910402
 10
8.9020368106
 20
8.7654998911
 10
8.8868575727
 20
8.7656456761
 10
8.8714430841
 20
8.7657260485
  0
ELLIPSE
  5
17D
330
1F
100
AcDbEntity
  8
0
  6
Continuous
 62
     7
370
    15
100
AcDbEllipse
 10
8.7459625774
 20
8.7647698788
 30
0.0
 11
0.07615810175355797
 21
0.1008382100559313
 31
0.0
210
0.0
220
0.0
230
1.0
 40
0.9889776728
 41
5.361515902416645
 42
6.924716032664991
  0
LINE
  5
17E
330
1F
100
AcDbEntity
  8
0
  6
Continuous
 62
     7
370
    15
100
AcDbLine
 10
8.7473002782
 20
9.0107938308
 30
0.0
 11
8.7473002782
 21
8.8906318056
 31
0.0
  0
LINE
  5
17F
330
1F
100
AcDbEntity
  8
0
  6
Continuous
 62
     7
370
    15
100
AcDbLine
 10
8.7473002782
 20
8.8906318056
 30
0.0
 11
1.6412192749
 21
8.8906318056
 31
0.0
  0
LINE
  5
180
330
1F
100
AcDbEntity
  8
0
  6
Continuous
 62
     7
370
    15
100
AcDbLine
 10
1.6412192749
 20
9.0107938308
 30
0.0
 11
1.6412192749
 21
8.8906318056
 31
0.0
  0
ELLIPSE
  5
181
330
1F
100
AcDbEntity
  8
0
  6
Continuous
 62
     7
370
    15
100
AcDbEllipse
 10
1.6425569757
 20
8.7647698788
 30
0.0
 11
-0.07615810175355729
 21
0.1008382100559313
 31
0.0
210
0.0
220
0.0
230
1.0
 40
0.9889776728
 41
5.641654581694219
 42
7.20485471194256
  0
LWPOLYLINE
  5
182
330
1F
100
AcDbEntity
  8
0
  6
Continuous
 62
     7
370
    15
100
AcDbPolyline
 90
       13
 70
   128
 43
0.0
 10
1.3925523342
 20
8.7613636456
 10
1.3948452944
 20
8.761903666
 10
1.3990044197
 20
8.7624351799
 10
1.4049657641
 20
8.7629505606
 10
1.4126386888
 20
8.7634418882
 10
1.4219058618
 20
8.7639012429
 10
1.4326256046
 20
8.7643221714
 10
1.4446348259
 20
8.7646976337
 10
1.457749901
 20
8.76502235
 10
1.4717704857
 20
8.7652910402
 10
1.4864827424
 20
8.7654998911
 10
1.5016619804
 20
8.7656456761
 10
1.517076469
 20
8.7657260485
  0
LINE
  5
183
330
1F
100
AcDbEntity
  8
0
  6
Continuous
 62
     7
370
    15
100
AcDbLine
 10
1.5248893121
 20
6.2084761767
 30
0.0
 11
1.517076469
 21
8.7657260485
 31
0.0
  0
LWPOLYLINE
  5
184
330
1F
100
AcDbEntity
  8
0
  6
Continuous
 62
     7
370
    15
100
AcDbPolyline
 90
       10
 70
   128
 43
0.0
 10
1.4003640039
 20
6.2044937827
 10
1.4031007723
 20
6.2050948158
 10
1.408812493
 20
6.2057278218
 10
1.4180696927
 20
6.206371681
 10
1.4313311395
 20
6.2069975005
 10
1.4488634703
 20
6.2075678806
 10
1.470647032
 20
6.2080380885
 10
1.4962793759
 20
6.2083582581
 10
1.5102867608
 20
6.2084456704
 10
1.5248893121
 20
6.2084761767
  0
LINE
  5
185
330
1F
100
AcDbEntity
  8
0
  6
Continuous
 62
     7
370
    15
100
AcDbLine
 10
8.863630241
 20
6.2084761767
 30
0.0
 11
8.8714430841
 21
8.7657260485
 31
0.0
  0
LWPOLYLINE
  5
186
330
1F
100
AcDbEntity
  8
0
  6
Continuous
 62
     7
370
    15
100
AcDbPolyline
 90
       10
 70
   128
 43
0.0
 10
8.9881555491
 20
6.2044937827
 10
8.9854187807
 20
6.2050948158
 10
8.9797070601
 20
6.2057278218
 10
8.9704498603
 20
6.206371681
 10
8.9571884135
 20
6.2069975005
 10
8.9396560827
 20
6.2075678806
 10
8.917872521
 20
6.2080380885
 10
8.8922401772
 20
6.2083582581
 10
8.8782327923
 20
6.2084456704
 10
8.863630241
 20
6.2084761767
  0
LINE
  5
187
330
1F
100
AcDbEntity
  8
0
  6
Continuous
 62
     7
370
    15
100
AcDbLine
 10
8.6404175929
 20
5.8422402475
 30
0.0
 11
8.640408793
 21
5.8422342343
 31
0.0
  0
LWPOLYLINE
  5
188
330
1F
100
AcDbEntity
  8
0
  6
Continuous
 62
     7
370
    15
100
AcDbPolyline
 90
       12
 70
   128
 43
0.0
 10
8.863630241
 20
6.2084761767
 10
8.8614194132
 20
6.1555987609
 10
8.8551691387
 20
6.1066222667
 10
8.8449501101
 20
6.0615288743
 10
8.8308330199
 20
6.0203007639
 10
8.8128888538
 20
5.982919969
 10
8.7911880112
 20
5.9493687433
 10
8.7673502599
 20
5.9212260817
 10
8.7402949724
 20
5.8964568612
 10
8.7100814015
 20
5.8750461952
 10
8.6767693863
 20
5.8569789773
 10
8.6404175929
 20
5.8422402475
  0
ARC
  5
189
330
1F
100
AcDbEntity
  8
0
  6
Continuous
 62
     7
370
    15
100
AcDbCircle
 10
8.9810949963
 20
5.8473526145
 30
0.0
 40
0.0121778178213268
100
AcDbArc
 50
32.275066166
 51
104.1096639582
  0
LWPOLYLINE
  5
18A
330
1F
100
AcDbEntity
  8
0
  6
Continuous
 62
     7
370
    15
100
AcDbPolyline
 90
       12
 70
   128
 43
0.0
 10
8.640408793
 20
5.8422342343
 10
8.6664632387
 20
5.8430402316
 10
8.7159013609
 20
5.8444715351
 10
8.7652218578
 20
5.8459180184
 10
8.8138665225
 20
5.8475439463
 10
8.8612780282
 20
5.8495138035
 10
8.8891871991
 20
5.8509540535
 10
8.9159661697
 20
5.8526389407
 10
8.9407185238
 20
5.8545975781
 10
8.9568968436
 20
5.8562119928
 10
8.97076519
 20
5.8579672792
 10
8.978126305
 20
5.8591630387
  0
ARC
  5
18B
330
1F
100
AcDbEntity
  8
0
  6
Continuous
 62
     7
370
    15
100
AcDbCircle
 10
1.4074245568
 20
5.8473526145
 30
0.0
 40
0.0121778178213242
100
AcDbArc
 50
75.8903360418
 51
147.724933834
  0
LWPOLYLINE
  5
18C
330
1F
100
AcDbEntity
  8
0
  6
Continuous
 62
     7
370
    15
100
AcDbPolyline
 90
       12
 70
   128
 43
0.0
 10
1.5248893121
 20
6.2084761767
 10
1.5271001399
 20
6.1555987609
 10
1.5333504143
 20
6.1066222667
 10
1.543569443
 20
6.0615288743
 10
1.5576865332
 20
6.0203007639
 10
1.5756306992
 20
5.982919969
 10
1.5973315419
 20
5.9493687433
 10
1.6211692932
 20
5.9212260817
 10
1.6482245806
 20
5.8964568612
 10
1.6784381516
 20
5.8750461952
 10
1.7117501668
 20
5.8569789773
 10
1.7481019602
 20
5.8422402475
  0
LINE
  5
18D
330
1F
100
AcDbEntity
  8
0
  6
Continuous
 62
     7
370
    15
100
AcDbLine
 10
1.7481019602
 20
5.8422402475
 30
0.0
 11
1.7481107601
 21
5.8422342343
 31
0.0
  0
LWPOLYLINE
  5
18E
330
1F
100
AcDbEntity
  8
0
  6
Continuous
 62
     7
370
    15
100
AcDbPolyline
 90
       12
 70
   128
 43
0.0
 10
1.7481107601
 20
5.8422342343
 10
1.7220563144
 20
5.8430402316
 10
1.6726181922
 20
5.8444715351
 10
1.6232976953
 20
5.8459180184
 10
1.5746530305
 20
5.8475439463
 10
1.5272415249
 20
5.8495138035
 10
1.499332354
 20
5.8509540535
 10
1.4725533833
 20
5.8526389407
 10
1.4478010293
 20
5.8545975781
 10
1.4316227095
 20
5.8562119928
 10
1.417754363
 20
5.8579672792
 10
1.4103932481
 20
5.8591630387
  0
ARC
  5
18F
330
1F
100
AcDbEntity
  8
0
  6
Continuous
 62
     7
370
    15
100
AcDbCircle
 10
8.9883100888
 20
5.8577003872
 30
0.0
 40
0.0102882846996958
100
AcDbArc
 50
171.8267569023
 51
261.9662239908
  0
ARC
  5
190
330
1F
100
AcDbEntity
  8
0
  6
Continuous
 62
     7
370
    15
100
AcDbCircle
 10
1.4002094643
 20
5.8577003872
 30
0.0
 40
0.010288284699694
100
AcDbArc
 50
278.0337760092
 51
8.1732430977
  0
LWPOLYLINE
  5
191
330
1F
100
AcDbEntity
  8
0
  6
Continuous
 62
     7
370
    15
100
AcDbPolyline
 90
       12
 70
   128
 43
0.0
 10
1.4016473225
 20
5.8475130733
 10
1.4096528833
 20
5.8459347382
 10
1.4244683922
 20
5.8437670299
 10
1.4417305661
 20
5.841881725
 10
1.4673761098
 20
5.839771216
 10
1.4951013629
 20
5.8380536226
 10
1.524000229
 20
5.8366673452
 10
1.5721201265
 20
5.8349505584
 10
1.6214948894
 20
5.8337715187
 10
1.671563671
 20
5.833051027
 10
1.7217662111
 20
5.832710031
 10
1.7481119334
 20
5.8326637582
  0
LWPOLYLINE
  5
192
330
1F
100
AcDbEntity
  8
0
  6
Continuous
 62
     7
370
    15
100
AcDbPolyline
 90
        5
 70
   128
 43
0.0
 10
1.7481107601
 20
5.8422342343
 10
1.7481110534
 20
5.8387986073
 10
1.7481113467
 20
5.8358311349
 10
1.7481116401
 20
5.8336984062
 10
1.7481119334
 20
5.8326637582
  0
LWPOLYLINE
  5
193
330
1F
100
AcDbEntity
  8
0
  6
Continuous
 62
     7
370
    15
100
AcDbPolyline
 90
       12
 70
   128
 43
0.0
 10
8.9868722306
 20
5.8475130733
 10
8.9788666698
 20
5.8459347382
 10
8.9640511609
 20
5.8437670299
 10
8.946788987
 20
5.841881725
 10
8.9211434433
 20
5.839771216
 10
8.8934181902
 20
5.8380536226
 10
8.8645193241
 20
5.8366673452
 10
8.8163994266
 20
5.8349505584
 10
8.7670246637
 20
5.8337715187
 10
8.7169558821
 20
5.833051027
 10
8.666753342
 20
5.832710031
 10
8.6404076197
 20
5.8326637582
  0
LWPOLYLINE
  5
194
330
1F
100
AcDbEntity
  8
0
  6
Continuous
 62
     7
370
    15
100
AcDbPolyline
 90
        5
 70
   128
 43
0.0
 10
8.640408793
 20
5.8422342343
 10
8.6404084997
 20
5.8387986073
 10
8.6404082063
 20
5.8358311349
 10
8.640407913
 20
5.8336984062
 10
8.6404076197
 20
5.8326637582
  0
ELLIPSE
  5
195
330
1F
100
AcDbEntity
  8
0
  6
Continuous
 62
     7
370
    15
100
AcDbEllipse
 10
8.9641264301
 20
5.8296787777
 30
0.0
 11
0.00999999999999801
 21
0.0
 31
0.0
210
0.0
220
0.0
230
1.0
 40
0.1227845609
 41
4.721115626644423
 42
6.195918844580692
  0
LINE
  5
196
330
1F
100
AcDbEntity
  8
0
  6
Continuous
 62
     7
370
    15
100
AcDbLine
 10
8.9642136657
 20
5.8284509535
 30
0.0
 11
8.7572952027
 21
5.8282292694
 31
0.0
  0
LINE
  5
197
330
1F
100
AcDbEntity
  8
0
  6
Continuous
 62
     7
370
    15
100
AcDbLine
 10
8.7567598756
 20
5.8294839149
 30
0.0
 11
8.7572952027
 21
5.8282292694
 31
0.0
  0
LINE
  5
198
330
1F
100
AcDbEntity
  8
0
  6
Continuous
 62
     7
370
    15
100
AcDbLine
 10
8.7567598756
 20
5.8294839149
 30
0.0
 11
8.3817598343
 21
5.8294839149
 31
0.0
  0
LINE
  5
199
330
1F
100
AcDbEntity
  8
0
  6
Continuous
 62
     7
370
    15
100
AcDbLine
 10
8.3810523224
 20
5.8278260874
 30
0.0
 11
8.3817598343
 21
5.8294839149
 31
0.0
  0
LINE
  5
19A
330
1F
100
AcDbEntity
  8
0
  6
Continuous
 62
     7
370
    15
100
AcDbLine
 10
8.3810523224
 20
5.8278260874
 30
0.0
 11
8.0076380228
 21
5.8274259853
 31
0.0
  0
LINE
  5
19B
330
1F
100
AcDbEntity
  8
0
  6
Continuous
 62
     7
370
    15
100
AcDbLine
 10
8.006759793
 20
5.8294839149
 30
0.0
 11
8.0076380228
 21
5.8274259853
 31
0.0
  0
LINE
  5
19C
330
1F
100
AcDbEntity
  8
0
  6
Continuous
 62
     7
370
    15
100
AcDbLine
 10
8.006759793
 20
5.8294839149
 30
0.0
 11
7.6317597517
 21
5.8294839149
 31
0.0
  0
LINE
  5
19D
330
1F
100
AcDbEntity
  8
0
  6
Continuous
 62
     7
370
    15
100
AcDbLine
 10
7.6307090438
 20
5.82702207
 30
0.0
 11
7.6317597517
 21
5.8294839149
 31
0.0
  0
LINE
  5
19E
330
1F
100
AcDbEntity
  8
0
  6
Continuous
 62
     7
370
    15
100
AcDbLine
 10
7.6307090438
 20
5.82702207
 30
0.0
 11
7.2579809896
 21
5.8266227013
 31
0.0
  0
LINE
  5
19F
330
1F
100
AcDbEntity
  8
0
  6
Continuous
 62
     7
370
    15
100
AcDbLine
 10
7.2567597104
 20
5.8294839149
 30
0.0
 11
7.2579809896
 21
5.8266227013
 31
0.0
  0
LINE
  5
1A0
330
1F
100
AcDbEntity
  8
0
  6
Continuous
 62
     7
370
    15
100
AcDbLine
 10
7.2567597104
 20
5.8294839149
 30
0.0
 11
6.8817598157
 21
5.8294839149
 31
0.0
  0
LINE
  5
1A1
330
1F
100
AcDbEntity
  8
0
  6
Continuous
 62
     7
370
    15
100
AcDbLine
 10
6.8803657652
 20
5.8262180526
 30
0.0
 11
6.8817598157
 21
5.8294839149
 31
0.0
  0
LINE
  5
1A2
330
1F
100
AcDbEntity
  8
0
  6
Continuous
 62
     7
370
    15
100
AcDbLine
 10
6.8803657652
 20
5.8262180526
 30
0.0
 11
6.5083238097
 21
5.8258194172
 31
0.0
  0
LINE
  5
1A3
330
1F
100
AcDbEntity
  8
0
  6
Continuous
 62
     7
370
    15
100
AcDbLine
 10
6.5067597744
 20
5.8294839149
 30
0.0
 11
6.5083238097
 21
5.8258194172
 31
0.0
  0
LINE
  5
1A4
330
1F
100
AcDbEntity
  8
0
  6
Continuous
 62
     7
370
    15
100
AcDbLine
 10
6.5067597744
 20
5.8294839149
 30
0.0
 11
6.1317598065
 21
5.8294839149
 31
0.0
  0
LINE
  5
1A5
330
1F
100
AcDbEntity
  8
0
  6
Continuous
 62
     7
370
    15
100
AcDbLine
 10
6.1300226332
 20
5.8254141086
 30
0.0
 11
6.1317598065
 21
5.8294839149
 31
0.0
  0
LINE
  5
1A6
330
1F
100
AcDbEntity
  8
0
  6
Continuous
 62
     7
370
    15
100
AcDbLine
 10
6.1300226332
 20
5.8254141086
 30
0.0
 11
5.7586667398
 21
5.8250161332
 31
0.0
  0
LINE
  5
1A7
330
1F
100
AcDbEntity
  8
0
  6
Continuous
 62
     7
370
    15
100
AcDbLine
 10
5.7567597652
 20
5.8294839149
 30
0.0
 11
5.7586667398
 21
5.8250161332
 31
0.0
  0
LINE
  5
1A8
330
1F
100
AcDbEntity
  8
0
  6
Continuous
 62
     7
370
    15
100
AcDbLine
 10
5.7567597652
 20
5.8294839149
 30
0.0
 11
5.3817597789
 21
5.8294839149
 31
0.0
  0
LINE
  5
1A9
330
1F
100
AcDbEntity
  8
0
  6
Continuous
 62
     7
370
    15
100
AcDbLine
 10
5.3796794829
 20
5.8246100912
 30
0.0
 11
5.3817597789
 21
5.8294839149
 31
0.0
  0
LINE
  5
1AA
330
1F
100
AcDbEntity
  8
0
  6
Continuous
 62
     7
370
    15
100
AcDbLine
 10
5.3796794829
 20
5.8246100912
 30
0.0
 11
5.2488006252
 21
5.8244698061
 31
0.0
  0
ELLIPSE
  5
1AB
330
1F
100
AcDbEntity
  8
0
  6
Continuous
 62
     7
370
    15
100
AcDbEllipse
 10
5.1942597765
 20
6.5918441075
 30
0.0
 11
6.249999999999999
 21
0.0
 31
0.0
210
0.0
220
0.0
230
1.0
 40
0.1227845609
 41
4.703662334124719
 42
4.721115626644663
  0
LINE
  5
1AC
330
1F
100
AcDbEntity
  8
0
  6
Continuous
 62
     7
370
    15
100
AcDbLine
 10
5.0088400702
 20
5.8246100912
 30
0.0
 11
5.1397189278
 21
5.8244698061
 31
0.0
  0
LINE
  5
1AD
330
1F
100
AcDbEntity
  8
0
  6
Continuous
 62
     7
370
    15
100
AcDbLine
 10
5.0088400702
 20
5.8246100912
 30
0.0
 11
5.0067597742
 21
5.8294839149
 31
0.0
  0
LINE
  5
1AE
330
1F
100
AcDbEntity
  8
0
  6
Continuous
 62
     7
370
    15
100
AcDbLine
 10
4.6317597879
 20
5.8294839149
 30
0.0
 11
5.0067597742
 21
5.8294839149
 31
0.0
  0
LINE
  5
1AF
330
1F
100
AcDbEntity
  8
0
  6
Continuous
 62
     7
370
    15
100
AcDbLine
 10
4.6317597879
 20
5.8294839149
 30
0.0
 11
4.6298528133
 21
5.8250161332
 31
0.0
  0
LINE
  5
1B0
330
1F
100
AcDbEntity
  8
0
  6
Continuous
 62
     7
370
    15
100
AcDbLine
 10
4.2584969199
 20
5.8254141086
 30
0.0
 11
4.6298528133
 21
5.8250161332
 31
0.0
  0
LINE
  5
1B1
330
1F
100
AcDbEntity
  8
0
  6
Continuous
 62
     7
370
    15
100
AcDbLine
 10
4.2584969199
 20
5.8254141086
 30
0.0
 11
4.2567597466
 21
5.8294839149
 31
0.0
  0
LINE
  5
1B2
330
1F
100
AcDbEntity
  8
0
  6
Continuous
 62
     7
370
    15
100
AcDbLine
 10
3.8817597786
 20
5.8294839149
 30
0.0
 11
4.2567597466
 21
5.8294839149
 31
0.0
  0
LINE
  5
1B3
330
1F
100
AcDbEntity
  8
0
  6
Continuous
 62
     7
370
    15
100
AcDbLine
 10
3.8817597786
 20
5.8294839149
 30
0.0
 11
3.8801957434
 21
5.8258194172
 31
0.0
  0
LINE
  5
1B4
330
1F
100
AcDbEntity
  8
0
  6
Continuous
 62
     7
370
    15
100
AcDbLine
 10
3.5081537879
 20
5.8262180526
 30
0.0
 11
3.8801957434
 21
5.8258194172
 31
0.0
  0
LINE
  5
1B5
330
1F
100
AcDbEntity
  8
0
  6
Continuous
 62
     7
370
    15
100
AcDbLine
 10
3.5081537879
 20
5.8262180526
 30
0.0
 11
3.5067597373
 21
5.8294839149
 31
0.0
  0
LINE
  5
1B6
330
1F
100
AcDbEntity
  8
0
  6
Continuous
 62
     7
370
    15
100
AcDbLine
 10
3.1317598427
 20
5.8294839149
 30
0.0
 11
3.5067597373
 21
5.8294839149
 31
0.0
  0
LINE
  5
1B7
330
1F
100
AcDbEntity
  8
0
  6
Continuous
 62
     7
370
    15
100
AcDbLine
 10
3.1317598427
 20
5.8294839149
 30
0.0
 11
3.1305385635
 21
5.8266227013
 31
0.0
  0
LINE
  5
1B8
330
1F
100
AcDbEntity
  8
0
  6
Continuous
 62
     7
370
    15
100
AcDbLine
 10
2.7578105093
 20
5.82702207
 30
0.0
 11
3.1305385635
 21
5.8266227013
 31
0.0
  0
LINE
  5
1B9
330
1F
100
AcDbEntity
  8
0
  6
Continuous
 62
     7
370
    15
100
AcDbLine
 10
2.7578105093
 20
5.82702207
 30
0.0
 11
2.7567598014
 21
5.8294839149
 31
0.0
  0
LINE
  5
1BA
330
1F
100
AcDbEntity
  8
0
  6
Continuous
 62
     7
370
    15
100
AcDbLine
 10
2.3817597601
 20
5.8294839149
 30
0.0
 11
2.7567598014
 21
5.8294839149
 31
0.0
  0
LINE
  5
1BB
330
1F
100
AcDbEntity
  8
0
  6
Continuous
 62
     7
370
    15
100
AcDbLine
 10
2.3817597601
 20
5.8294839149
 30
0.0
 11
2.3808815303
 21
5.8274259853
 31
0.0
  0
LINE
  5
1BC
330
1F
100
AcDbEntity
  8
0
  6
Continuous
 62
     7
370
    15
100
AcDbLine
 10
2.0074672306
 20
5.8278260874
 30
0.0
 11
2.3808815303
 21
5.8274259853
 31
0.0
  0
LINE
  5
1BD
330
1F
100
AcDbEntity
  8
0
  6
Continuous
 62
     7
370
    15
100
AcDbLine
 10
2.0074672306
 20
5.8278260874
 30
0.0
 11
2.0067597188
 21
5.8294839149
 31
0.0
  0
LINE
  5
1BE
330
1F
100
AcDbEntity
  8
0
  6
Continuous
 62
     7
370
    15
100
AcDbLine
 10
1.6317596775
 20
5.8294839149
 30
0.0
 11
2.0067597188
 21
5.8294839149
 31
0.0
  0
LINE
  5
1BF
330
1F
100
AcDbEntity
  8
0
  6
Continuous
 62
     7
370
    15
100
AcDbLine
 10
1.6317596775
 20
5.8294839149
 30
0.0
 11
1.6312243504
 21
5.8282292694
 31
0.0
  0
LINE
  5
1C0
330
1F
100
AcDbEntity
  8
0
  6
Continuous
 62
     7
370
    15
100
AcDbLine
 10
1.4243058874
 20
5.8284509535
 30
0.0
 11
1.6312243504
 21
5.8282292694
 31
0.0
  0
ELLIPSE
  5
1C1
330
1F
100
AcDbEntity
  8
0
  6
Continuous
 62
     7
370
    15
100
AcDbEllipse
 10
1.4243931229
 20
5.8296787777
 30
0.0
 11
0.01000000000000001
 21
0.0
 31
0.0
210
0.0
220
0.0
230
1.0
 40
0.1227845609
 41
3.228859116188846
 42
4.703662334124756
  0
LINE
  5
1C2
330
1F
100
AcDbEntity
  8
0
  6
Continuous
 62
     7
370
    15
100
AcDbLine
 10
8.6404076197
 20
5.8326637582
 30
0.0
 11
1.7481119334
 21
5.8326637582
 31
0.0
  0
ELLIPSE
  5
1C3
330
1F
100
AcDbEntity
  8
0
  6
Continuous
 62
     7
370
    15
100
AcDbEllipse
 10
8.8503317991
 20
4.682635583
 30
0.0
 11
0.01363406038787218
 21
0.3361447616099902
 31
0.0
210
0.0
220
0.0
230
0.9999999999999999
 40
0.3715577186
 41
0.0102794901849982
 42
0.0181421473703531
  0
ELLIPSE
  5
1C4
330
1F
100
AcDbEntity
  8
0
  6
Continuous
 62
     7
370
    15
100
AcDbEllipse
 10
8.8630394158
 20
5.0003982628
 30
0.0
 11
0.1250309931565639
 21
-0.001699831361947624
 31
0.0
210
0.0
220
0.0
230
1.0
 40
0.1472302314
 41
0.092079155892609
 42
1.575662315693502
  0
LWPOLYLINE
  5
1C5
330
1F
100
AcDbEntity
  8
0
  6
Continuous
 62
     7
370
    15
100
AcDbPolyline
 90
       19
 70
   128
 43
0.0
 10
8.8596494603
 20
4.9675947674
 10
8.8833162002
 20
4.9683371929
 10
8.8951027841
 20
4.9692110377
 10
8.9067045701
 20
4.9704197336
 10
8.9204670244
 20
4.9723670743
 10
8.9337944704
 20
4.9748645175
 10
8.9463921116
 20
4.9779134474
 10
8.9509070461
 20
4.9792142202
 10
8.9553929409
 20
4.9806327798
 10
8.9598072633
 20
4.9821639736
 10
8.9636944717
 20
4.9836408532
 10
8.9672068045
 20
4.9850950318
 10
8.9707493502
 20
4.9866918788
 10
8.9742382166
 20
4.9884226149
 10
8.9778095086
 20
4.9904074434
 10
8.9816820506
 20
4.9928866612
 10
8.9842742073
 20
4.9948463619
 10
8.9863017039
 20
4.9967099512
 10
8.987473557
 20
4.9981441628
  0
LINE
  5
1C6
330
1F
100
AcDbEntity
  8
0
  6
Continuous
 62
     7
370
    15
100
AcDbLine
 10
8.8596494603
 20
4.9675947674
 30
0.0
 11
8.8616977833
 21
5.0188169252
 31
0.0
  0
LWPOLYLINE
  5
1C7
330
1F
100
AcDbEntity
  8
0
  6
Continuous
 62
     7
370
    15
100
AcDbPolyline
 90
       19
 70
   128
 43
0.0
 10
1.5288700928
 20
4.9675947674
 10
1.5052033528
 20
4.9683371929
 10
1.493416769
 20
4.9692110377
 10
1.481814983
 20
4.9704197336
 10
1.4680525287
 20
4.9723670743
 10
1.4547250826
 20
4.9748645175
 10
1.4421274415
 20
4.9779134474
 10
1.437612507
 20
4.9792142202
 10
1.4331266121
 20
4.9806327798
 10
1.4287122898
 20
4.9821639736
 10
1.4248250814
 20
4.9836408532
 10
1.4213127486
 20
4.9850950318
 10
1.4177702029
 20
4.9866918788
 10
1.4142813365
 20
4.9884226149
 10
1.4107100444
 20
4.9904074434
 10
1.4068375025
 20
4.9928866612
 10
1.4042453458
 20
4.9948463619
 10
1.4022178492
 20
4.9967099512
 10
1.4010459961
 20
4.9981441628
  0
ELLIPSE
  5
1C8
330
1F
100
AcDbEntity
  8
0
  6
Continuous
 62
     7
370
    15
100
AcDbEllipse
 10
1.5254801372
 20
5.0003982628
 30
0.0
 11
0.1250309931565647
 21
0.001699831361946736
 31
0.0
210
0.0
220
0.0
230
1.0
 40
0.1472302314
 41
1.565930337896294
 42
3.049513497697231
  0
ELLIPSE
  5
1C9
330
1F
100
AcDbEntity
  8
0
  6
Continuous
 62
     7
370
    15
100
AcDbEllipse
 10
1.538187754
 20
4.682635583
 30
0.0
 11
-0.01363406038787374
 21
0.3361447616099902
 31
0.0
210
0.0
220
0.0
230
0.9999999999999998
 40
0.3715577186
 41
6.265043159809276
 42
6.272905816994625
  0
LINE
  5
1CA
330
1F
100
AcDbEntity
  8
0
  6
Continuous
 62
     7
370
    15
100
AcDbLine
 10
1.5288700928
 20
4.9675947674
 30
0.0
 11
1.5268217698
 21
5.0188169252
 31
0.0
  0
LINE
  5
1CB
330
1F
100
AcDbEntity
  8
0
  6
Continuous
 62
     7
370
    15
100
AcDbLine
 10
1.5288700928
 20
4.9617581205
 30
0.0
 11
1.5288700928
 21
4.9675947674
 31
0.0
  0
LINE
  5
1CC
330
1F
100
AcDbEntity
  8
0
  6
Continuous
 62
     7
370
    15
100
AcDbLine
 10
8.8596494603
 20
4.9617581205
 30
0.0
 11
8.8596494603
 21
4.9675947674
 31
0.0
  0
ELLIPSE
  5
1CD
330
1F
100
AcDbEntity
  8
0
  6
Continuous
 62
     7
370
    15
100
AcDbEllipse
 10
8.8625455998
 20
5.1620310834
 30
0.0
 11
0.125000597280696
 21
-7.574059892156982E-6
 31
0.0
210
0.0
220
0.0
230
0.9999999999999999
 40
0.1233878556
 41
0.0877042378891736
 42
1.571287397690178
  0
ELLIPSE
  5
1CE
330
1F
100
AcDbEntity
  8
0
  6
Continuous
 62
     7
370
    15
100
AcDbEllipse
 10
8.8630394158
 20
5.0003982628
 30
0.0
 11
0.1250067565009623
 21
-0.003077699543147184
 31
0.0
210
0.0
220
0.0
230
0.9999999999999998
 40
0.2597326261
 41
0.0945084212805515
 42
1.578091581081462
  0
LINE
  5
1CF
330
1F
100
AcDbEntity
  8
0
  6
Continuous
 62
     7
370
    15
100
AcDbLine
 10
8.8629268358
 20
5.0328881826
 30
0.0
 11
8.8624850809
 21
5.1774546405
 31
0.0
  0
ELLIPSE
  5
1D0
330
1F
100
AcDbEntity
  8
0
  6
Continuous
 62
     7
370
    15
100
AcDbEllipse
 10
1.5254801372
 20
5.0003982628
 30
0.0
 11
0.1250067565009612
 21
0.003077699543146296
 31
0.0
210
0.0
220
0.0
230
0.9999999999999999
 40
0.2597326261
 41
1.563501072508332
 42
3.04708423230927
  0
ELLIPSE
  5
1D1
330
1F
100
AcDbEntity
  8
0
  6
Continuous
 62
     7
370
    15
100
AcDbEllipse
 10
1.5259739532
 20
5.1620310834
 30
0.0
 11
0.1250005972806949
 21
7.574059890380625E-6
 31
0.0
210
0.0
220
0.0
230
0.9999999999999999
 40
0.1233878556
 41
1.57030525589961
 42
3.053888415700733
  0
LINE
  5
1D2
330
1F
100
AcDbEntity
  8
0
  6
Continuous
 62
     7
370
    15
100
AcDbLine
 10
1.5255927173
 20
5.0328881826
 30
0.0
 11
1.5260344722
 21
5.1774546405
 31
0.0
  0
LWPOLYLINE
  5
1D3
330
1F
100
AcDbEntity
  8
0
  6
Continuous
 62
     7
370
    15
100
AcDbPolyline
 90
        9
 70
   128
 43
0.0
 10
1.5258382345
 20
5.0188146565
 10
1.5258094881
 20
5.0204818339
 10
1.5257798618
 20
5.0221869746
 10
1.5257496488
 20
5.0239243541
 10
1.5257188492
 20
5.0256881471
 10
1.5256877562
 20
5.0274724319
 10
1.5256563699
 20
5.0292712273
 10
1.5256243969
 20
5.0310785019
 10
1.5255927173
 20
5.0328881826
  0
LWPOLYLINE
  5
1D4
330
1F
100
AcDbEntity
  8
0
  6
Continuous
 62
     7
370
    15
100
AcDbPolyline
 90
        9
 70
   128
 43
0.0
 10
8.8626813186
 20
5.0188146565
 10
8.862710065
 20
5.0204818339
 10
8.8627396913
 20
5.0221869746
 10
8.8627699043
 20
5.0239243541
 10
8.8628007039
 20
5.0256881471
 10
8.8628317969
 20
5.0274724319
 10
8.8628631832
 20
5.0292712273
 10
8.8628951561
 20
5.0310785019
 10
8.8629268358
 20
5.0328881826
  0
LINE
  5
1D5
330
1F
100
AcDbEntity
  8
0
  6
Continuous
 62
     7
370
    15
100
AcDbLine
 10
5.2488006252
 20
5.1866894555
 30
0.0
 11
5.3796794829
 21
5.1865492255
 31
0.0
  0
LINE
  5
1D6
330
1F
100
AcDbEntity
  8
0
  6
Continuous
 62
     7
370
    15
100
AcDbLine
 10
5.3796794829
 20
5.1865492255
 30
0.0
 11
5.3817597789
 21
5.1816753651
 31
0.0
  0
LINE
  5
1D7
330
1F
100
AcDbEntity
  8
0
  6
Continuous
 62
     7
370
    15
100
AcDbLine
 10
5.3817597789
 20
5.1816753651
 30
0.0
 11
5.7567597652
 21
5.1816753651
 31
0.0
  0
LINE
  5
1D8
330
1F
100
AcDbEntity
  8
0
  6
Continuous
 62
     7
370
    15
100
AcDbLine
 10
5.7567597652
 20
5.1816753651
 30
0.0
 11
5.7586667398
 21
5.1861431285
 31
0.0
  0
LINE
  5
1D9
330
1F
100
AcDbEntity
  8
0
  6
Continuous
 62
     7
370
    15
100
AcDbLine
 10
5.7586667398
 20
5.1861431285
 30
0.0
 11
6.1300226332
 21
5.1857452081
 31
0.0
  0
LINE
  5
1DA
330
1F
100
AcDbEntity
  8
0
  6
Continuous
 62
     7
370
    15
100
AcDbLine
 10
6.1300226332
 20
5.1857452081
 30
0.0
 11
6.1317598065
 21
5.1816753651
 31
0.0
  0
LINE
  5
1DB
330
1F
100
AcDbEntity
  8
0
  6
Continuous
 62
     7
370
    15
100
AcDbLine
 10
6.1317598065
 20
5.1816753651
 30
0.0
 11
6.5067597744
 21
5.1816753651
 31
0.0
  0
LINE
  5
1DC
330
1F
100
AcDbEntity
  8
0
  6
Continuous
 62
     7
370
    15
100
AcDbLine
 10
6.5067597744
 20
5.1816753651
 30
0.0
 11
6.5083238097
 21
5.1853398444
 31
0.0
  0
LINE
  5
1DD
330
1F
100
AcDbEntity
  8
0
  6
Continuous
 62
     7
370
    15
100
AcDbLine
 10
6.5083238097
 20
5.1853398444
 30
0.0
 11
6.8803657652
 21
5.1849411907
 31
0.0
  0
LINE
  5
1DE
330
1F
100
AcDbEntity
  8
0
  6
Continuous
 62
     7
370
    15
100
AcDbLine
 10
6.8803657652
 20
5.1849411907
 30
0.0
 11
6.8817598157
 21
5.1816753651
 31
0.0
  0
LINE
  5
1DF
330
1F
100
AcDbEntity
  8
0
  6
Continuous
 62
     7
370
    15
100
AcDbLine
 10
6.8817598157
 20
5.1816753651
 30
0.0
 11
7.2567597104
 21
5.1816753651
 31
0.0
  0
LINE
  5
1E0
330
1F
100
AcDbEntity
  8
0
  6
Continuous
 62
     7
370
    15
100
AcDbLine
 10
7.2567597104
 20
5.1816753651
 30
0.0
 11
7.2579809896
 21
5.1845365787
 31
0.0
  0
LINE
  5
1E1
330
1F
100
AcDbEntity
  8
0
  6
Continuous
 62
     7
370
    15
100
AcDbLine
 10
7.2579809896
 20
5.1845365787
 30
0.0
 11
7.6307090438
 21
5.1841371917
 31
0.0
  0
LINE
  5
1E2
330
1F
100
AcDbEntity
  8
0
  6
Continuous
 62
     7
370
    15
100
AcDbLine
 10
7.6307090438
 20
5.1841371917
 30
0.0
 11
7.6317597517
 21
5.1816753651
 31
0.0
  0
LINE
  5
1E3
330
1F
100
AcDbEntity
  8
0
  6
Continuous
 62
     7
370
    15
100
AcDbLine
 10
7.6317597517
 20
5.1816753651
 30
0.0
 11
8.006759793
 21
5.1816753651
 31
0.0
  0
LINE
  5
1E4
330
1F
100
AcDbEntity
  8
0
  6
Continuous
 62
     7
370
    15
100
AcDbLine
 10
8.006759793
 20
5.1816753651
 30
0.0
 11
8.0076380228
 21
5.1837332947
 31
0.0
  0
LINE
  5
1E5
330
1F
100
AcDbEntity
  8
0
  6
Continuous
 62
     7
370
    15
100
AcDbLine
 10
8.0076380228
 20
5.1837332947
 30
0.0
 11
8.3810523224
 21
5.1833331743
 31
0.0
  0
LINE
  5
1E6
330
1F
100
AcDbEntity
  8
0
  6
Continuous
 62
     7
370
    15
100
AcDbLine
 10
8.3810523224
 20
5.1833331743
 30
0.0
 11
8.3817598343
 21
5.1816753651
 31
0.0
  0
LINE
  5
1E7
330
1F
100
AcDbEntity
  8
0
  6
Continuous
 62
     7
370
    15
100
AcDbLine
 10
8.3817598343
 20
5.1816753651
 30
0.0
 11
8.7567598756
 21
5.1816753651
 31
0.0
  0
LINE
  5
1E8
330
1F
100
AcDbEntity
  8
0
  6
Continuous
 62
     7
370
    15
100
AcDbLine
 10
8.7567598756
 20
5.1816753651
 30
0.0
 11
8.7572952027
 21
5.1829300289
 31
0.0
  0
LINE
  5
1E9
330
1F
100
AcDbEntity
  8
0
  6
Continuous
 62
     7
370
    15
100
AcDbLine
 10
8.7572952027
 20
5.1829300289
 30
0.0
 11
8.9642136657
 21
5.1827083082
 31
0.0
  0
ELLIPSE
  5
1EA
330
1F
100
AcDbEntity
  8
0
  6
Continuous
 62
     7
370
    15
100
AcDbEllipse
 10
8.9641264301
 20
5.1814805041
 30
0.0
 11
0.00999999999999801
 21
0.0
 31
0.0
210
0.0
220
0.0
230
1.0
 40
0.1227845609
 41
0.0872664625989415
 42
1.562069680535159
  0
LINE
  5
1EB
330
1F
100
AcDbEntity
  8
0
  6
Continuous
 62
     7
370
    15
100
AcDbLine
 10
8.8624850809
 20
5.1774546405
 30
0.0
 11
1.5260344722
 21
5.1774546405
 31
0.0
  0
ELLIPSE
  5
1EC
330
1F
100
AcDbEntity
  8
0
  6
Continuous
 62
     7
370
    15
100
AcDbEllipse
 10
1.4243931229
 20
5.1814805041
 30
0.0
 11
0.01000000000000001
 21
0.0
 31
0.0
210
0.0
220
0.0
230
1.0
 40
0.1227845609
 41
1.579522973054819
 42
3.054326190990727
  0
LINE
  5
1ED
330
1F
100
AcDbEntity
  8
0
  6
Continuous
 62
     7
370
    15
100
AcDbLine
 10
1.6312243504
 20
5.1829300289
 30
0.0
 11
1.4243058874
 21
5.1827083082
 31
0.0
  0
LINE
  5
1EE
330
1F
100
AcDbEntity
  8
0
  6
Continuous
 62
     7
370
    15
100
AcDbLine
 10
1.6317596775
 20
5.1816753651
 30
0.0
 11
1.6312243504
 21
5.1829300289
 31
0.0
  0
LINE
  5
1EF
330
1F
100
AcDbEntity
  8
0
  6
Continuous
 62
     7
370
    15
100
AcDbLine
 10
2.0067597188
 20
5.1816753651
 30
0.0
 11
1.6317596775
 21
5.1816753651
 31
0.0
  0
LINE
  5
1F0
330
1F
100
AcDbEntity
  8
0
  6
Continuous
 62
     7
370
    15
100
AcDbLine
 10
2.0074672306
 20
5.1833331743
 30
0.0
 11
2.0067597188
 21
5.1816753651
 31
0.0
  0
LINE
  5
1F1
330
1F
100
AcDbEntity
  8
0
  6
Continuous
 62
     7
370
    15
100
AcDbLine
 10
2.3808815303
 20
5.1837332947
 30
0.0
 11
2.0074672306
 21
5.1833331743
 31
0.0
  0
LINE
  5
1F2
330
1F
100
AcDbEntity
  8
0
  6
Continuous
 62
     7
370
    15
100
AcDbLine
 10
2.3817597601
 20
5.1816753651
 30
0.0
 11
2.3808815303
 21
5.1837332947
 31
0.0
  0
LINE
  5
1F3
330
1F
100
AcDbEntity
  8
0
  6
Continuous
 62
     7
370
    15
100
AcDbLine
 10
2.7567598014
 20
5.1816753651
 30
0.0
 11
2.3817597601
 21
5.1816753651
 31
0.0
  0
LINE
  5
1F4
330
1F
100
AcDbEntity
  8
0
  6
Continuous
 62
     7
370
    15
100
AcDbLine
 10
2.7578105093
 20
5.1841371917
 30
0.0
 11
2.7567598014
 21
5.1816753651
 31
0.0
  0
LINE
  5
1F5
330
1F
100
AcDbEntity
  8
0
  6
Continuous
 62
     7
370
    15
100
AcDbLine
 10
3.1305385635
 20
5.1845365787
 30
0.0
 11
2.7578105093
 21
5.1841371917
 31
0.0
  0
LINE
  5
1F6
330
1F
100
AcDbEntity
  8
0
  6
Continuous
 62
     7
370
    15
100
AcDbLine
 10
3.1317598427
 20
5.1816753651
 30
0.0
 11
3.1305385635
 21
5.1845365787
 31
0.0
  0
LINE
  5
1F7
330
1F
100
AcDbEntity
  8
0
  6
Continuous
 62
     7
370
    15
100
AcDbLine
 10
3.5067597373
 20
5.1816753651
 30
0.0
 11
3.1317598427
 21
5.1816753651
 31
0.0
  0
LINE
  5
1F8
330
1F
100
AcDbEntity
  8
0
  6
Continuous
 62
     7
370
    15
100
AcDbLine
 10
3.5081537879
 20
5.1849411907
 30
0.0
 11
3.5067597373
 21
5.1816753651
 31
0.0
  0
LINE
  5
1F9
330
1F
100
AcDbEntity
  8
0
  6
Continuous
 62
     7
370
    15
100
AcDbLine
 10
3.8801957434
 20
5.1853398444
 30
0.0
 11
3.5081537879
 21
5.1849411907
 31
0.0
  0
LINE
  5
1FA
330
1F
100
AcDbEntity
  8
0
  6
Continuous
 62
     7
370
    15
100
AcDbLine
 10
3.8817597786
 20
5.1816753651
 30
0.0
 11
3.8801957434
 21
5.1853398444
 31
0.0
  0
LINE
  5
1FB
330
1F
100
AcDbEntity
  8
0
  6
Continuous
 62
     7
370
    15
100
AcDbLine
 10
4.2567597466
 20
5.1816753651
 30
0.0
 11
3.8817597786
 21
5.1816753651
 31
0.0
  0
LINE
  5
1FC
330
1F
100
AcDbEntity
  8
0
  6
Continuous
 62
     7
370
    15
100
AcDbLine
 10
4.2584969199
 20
5.1857452081
 30
0.0
 11
4.2567597466
 21
5.1816753651
 31
0.0
  0
LINE
  5
1FD
330
1F
100
AcDbEntity
  8
0
  6
Continuous
 62
     7
370
    15
100
AcDbLine
 10
4.6298528133
 20
5.1861431285
 30
0.0
 11
4.2584969199
 21
5.1857452081
 31
0.0
  0
LINE
  5
1FE
330
1F
100
AcDbEntity
  8
0
  6
Continuous
 62
     7
370
    15
100
AcDbLine
 10
4.6317597879
 20
5.1816753651
 30
0.0
 11
4.6298528133
 21
5.1861431285
 31
0.0
  0
LINE
  5
1FF
330
1F
100
AcDbEntity
  8
0
  6
Continuous
 62
     7
370
    15
100
AcDbLine
 10
5.0067597742
 20
5.1816753651
 30
0.0
 11
4.6317597879
 21
5.1816753651
 31
0.0
  0
LINE
  5
200
330
1F
100
AcDbEntity
  8
0
  6
Continuous
 62
     7
370
    15
100
AcDbLine
 10
5.0088400702
 20
5.1865492255
 30
0.0
 11
5.0067597742
 21
5.1816753651
 31
0.0
  0
LINE
  5
201
330
1F
100
AcDbEntity
  8
0
  6
Continuous
 62
     7
370
    15
100
AcDbLine
 10
5.1397189278
 20
5.1866894555
 30
0.0
 11
5.0088400702
 21
5.1865492255
 31
0.0
  0
ELLIPSE
  5
202
330
1F
100
AcDbEntity
  8
0
  6
Continuous
 62
     7
370
    15
100
AcDbEllipse
 10
5.1942597765
 20
4.4193151743
 30
0.0
 11
6.249999999999999
 21
0.0
 31
0.0
210
0.0
220
0.0
230
1.0
 40
0.1227845609
 41
1.562069680534924
 42
1.579522973054869
  0
LINE
  5
203
330
1F
100
AcDbEntity
  8
0
  6
Continuous
 62
     7
370
    15
100
AcDbLine
 10
1.7481019602
 20
5.8422402475
 30
0.0
 11
8.6404175929
 21
5.8422402475
 31
0.0
  0
ELLIPSE
  5
204
330
1F
100
AcDbEntity
  8
0
  6
Continuous
 62
     7
370
    15
100
AcDbEllipse
 10
1.538187754
 20
4.6837261923
 30
0.0
 11
-0.01420951944864268
 21
0.3491149612542204
 31
0.0
210
0.0
220
0.0
230
1.0
 40
0.4471896011
 41
6.264986007600062
 42
6.27284866478541
  0
LINE
  5
205
330
1F
100
AcDbEntity
  8
0
  6
Continuous
 62
     7
370
    15
100
AcDbLine
 10
1.5268217698
 20
5.0188169252
 30
0.0
 11
1.5268217698
 21
5.0328989763
 31
0.0
  0
LINE
  5
206
330
1F
100
AcDbEntity
  8
0
  6
Continuous
 62
     7
370
    15
100
AcDbLine
 10
8.8616977833
 20
5.0188169252
 30
0.0
 11
8.8616977833
 21
5.0328989763
 31
0.0
  0
ELLIPSE
  5
207
330
1F
100
AcDbEntity
  8
0
  6
Continuous
 62
     7
370
    15
100
AcDbEllipse
 10
8.8503317991
 20
4.6837261923
 30
0.0
 11
0.01420951944864157
 21
0.3491149612542204
 31
0.0
210
0.0
220
0.0
230
0.9999999999999999
 40
0.4471896011
 41
0.0103366423942084
 42
0.0181992995795606
  0
LINE
  5
208
330
1F
100
AcDbEntity
  8
0
  6
Continuous
 62
     7
370
    15
100
AcDbLine
 10
8.8616977833
 20
5.0188169252
 30
0.0
 11
1.5268217698
 21
5.0188169252
 31
0.0
  0
LINE
  5
209
330
1F
100
AcDbEntity
  8
0
  6
Continuous
 62
     7
370
    15
100
AcDbLine
 10
1.5268217698
 20
5.0328989763
 30
0.0
 11
8.8616977833
 21
5.0328989763
 31
0.0
  0
LINE
  5
20A
330
1F
100
AcDbEntity
  8
0
  6
Continuous
 62
     7
370
    15
100
AcDbLine
 10
1.7645721432
 20
5.0774857879
 30
0.0
 11
1.9989471691
 21
5.0774857879
 31
0.0
  0
ARC
  5
20B
330
1F
100
AcDbEntity
  8
0
  6
Continuous
 62
     7
370
    15
100
AcDbCircle
 10
1.9989581797
 20
5.1009090044
 30
0.0
 40
0.0234232190842629
100
AcDbArc
 50
269.9730666593
 51
90.0269333407
  0
LINE
  5
20C
330
1F
100
AcDbEntity
  8
0
  6
Continuous
 62
     7
370
    15
100
AcDbLine
 10
1.9989471691
 20
5.1243322209
 30
0.0
 11
1.7645721432
 21
5.1243322209
 31
0.0
  0
ARC
  5
20D
330
1F
100
AcDbEntity
  8
0
  6
Continuous
 62
     7
370
    15
100
AcDbCircle
 10
1.7645613305
 20
5.1009090044
 30
0.0
 40
0.0234232189920348
100
AcDbArc
 50
89.9735509364
 51
270.0264490636
  0
LINE
  5
20E
330
1F
100
AcDbEntity
  8
0
  6
Continuous
 62
     7
370
    15
100
AcDbLine
 10
1.9579616425
 20
5.0852840103
 30
0.0
 11
1.9607661701
 21
5.0852840103
 31
0.0
  0
LINE
  5
20F
330
1F
100
AcDbEntity
  8
0
  6
Continuous
 62
     7
370
    15
100
AcDbLine
 10
1.9607661701
 20
5.0852840103
 30
0.0
 11
1.9607661701
 21
5.1005083661
 31
0.0
  0
LINE
  5
210
330
1F
100
AcDbEntity
  8
0
  6
Continuous
 62
     7
370
    15
100
AcDbLine
 10
1.9607661701
 20
5.1005083661
 30
0.0
 11
1.9731860533
 21
5.1005083661
 31
0.0
  0
LINE
  5
211
330
1F
100
AcDbEntity
  8
0
  6
Continuous
 62
     7
370
    15
100
AcDbLine
 10
1.9731860533
 20
5.1005083661
 30
0.0
 11
1.9731860533
 21
5.1037134907
 31
0.0
  0
LINE
  5
212
330
1F
100
AcDbEntity
  8
0
  6
Continuous
 62
     7
370
    15
100
AcDbLine
 10
1.9731860533
 20
5.1037134907
 30
0.0
 11
1.9607661701
 21
5.1037134907
 31
0.0
  0
LINE
  5
213
330
1F
100
AcDbEntity
  8
0
  6
Continuous
 62
     7
370
    15
100
AcDbLine
 10
1.9607661701
 20
5.1037134907
 30
0.0
 11
1.9607661701
 21
5.113328883
 31
0.0
  0
LINE
  5
214
330
1F
100
AcDbEntity
  8
0
  6
Continuous
 62
     7
370
    15
100
AcDbLine
 10
1.9607661701
 20
5.113328883
 30
0.0
 11
1.9731860533
 21
5.113328883
 31
0.0
  0
LINE
  5
215
330
1F
100
AcDbEntity
  8
0
  6
Continuous
 62
     7
370
    15
100
AcDbLine
 10
1.9731860533
 20
5.113328883
 30
0.0
 11
1.9731860533
 21
5.1165340076
 31
0.0
  0
LINE
  5
216
330
1F
100
AcDbEntity
  8
0
  6
Continuous
 62
     7
370
    15
100
AcDbLine
 10
1.9731860533
 20
5.1165340076
 30
0.0
 11
1.9579616425
 21
5.1165340076
 31
0.0
  0
LINE
  5
217
330
1F
100
AcDbEntity
  8
0
  6
Continuous
 62
     7
370
    15
100
AcDbLine
 10
1.9579616425
 20
5.1165340076
 30
0.0
 11
1.9579616425
 21
5.0852840103
 31
0.0
  0
LINE
  5
218
330
1F
100
AcDbEntity
  8
0
  6
Continuous
 62
     7
370
    15
100
AcDbLine
 10
1.8942597651
 20
5.0924955453
 30
0.0
 11
1.9090834872
 21
5.0924955453
 31
0.0
  0
LINE
  5
219
330
1F
100
AcDbEntity
  8
0
  6
Continuous
 62
     7
370
    15
100
AcDbLine
 10
1.9090834872
 20
5.0924955453
 30
0.0
 11
1.9090834872
 21
5.0852840103
 31
0.0
  0
LINE
  5
21A
330
1F
100
AcDbEntity
  8
0
  6
Continuous
 62
     7
370
    15
100
AcDbLine
 10
1.9090834872
 20
5.0852840103
 30
0.0
 11
1.9118880148
 21
5.0852840103
 31
0.0
  0
LINE
  5
21B
330
1F
100
AcDbEntity
  8
0
  6
Continuous
 62
     7
370
    15
100
AcDbLine
 10
1.9118880148
 20
5.0852840103
 30
0.0
 11
1.9118880148
 21
5.0924955453
 31
0.0
  0
LINE
  5
21C
330
1F
100
AcDbEntity
  8
0
  6
Continuous
 62
     7
370
    15
100
AcDbLine
 10
1.9118880148
 20
5.0924955453
 30
0.0
 11
1.9154936265
 21
5.0924955453
 31
0.0
  0
LINE
  5
21D
330
1F
100
AcDbEntity
  8
0
  6
Continuous
 62
     7
370
    15
100
AcDbLine
 10
1.9154936265
 20
5.0924955453
 30
0.0
 11
1.9154936265
 21
5.0957006699
 31
0.0
  0
LINE
  5
21E
330
1F
100
AcDbEntity
  8
0
  6
Continuous
 62
     7
370
    15
100
AcDbLine
 10
1.9154936265
 20
5.0957006699
 30
0.0
 11
1.9118880148
 21
5.0957006699
 31
0.0
  0
LINE
  5
21F
330
1F
100
AcDbEntity
  8
0
  6
Continuous
 62
     7
370
    15
100
AcDbLine
 10
1.9118880148
 20
5.0957006699
 30
0.0
 11
1.9118880148
 21
5.1173352934
 31
0.0
  0
LINE
  5
220
330
1F
100
AcDbEntity
  8
0
  6
Continuous
 62
     7
370
    15
100
AcDbLine
 10
1.9118880148
 20
5.1173352934
 30
0.0
 11
1.911318368
 21
5.1173352934
 31
0.0
  0
LINE
  5
221
330
1F
100
AcDbEntity
  8
0
  6
Continuous
 62
     7
370
    15
100
AcDbLine
 10
1.911318368
 20
5.1173352934
 30
0.0
 11
1.8942597651
 21
5.0924955453
 31
0.0
  0
LINE
  5
222
330
1F
100
AcDbEntity
  8
0
  6
Continuous
 62
     7
370
    15
100
AcDbLine
 10
1.8461829871
 20
5.0924955453
 30
0.0
 11
1.8610067092
 21
5.0924955453
 31
0.0
  0
LINE
  5
223
330
1F
100
AcDbEntity
  8
0
  6
Continuous
 62
     7
370
    15
100
AcDbLine
 10
1.8610067092
 20
5.0924955453
 30
0.0
 11
1.8610067092
 21
5.0852840103
 31
0.0
  0
LINE
  5
224
330
1F
100
AcDbEntity
  8
0
  6
Continuous
 62
     7
370
    15
100
AcDbLine
 10
1.8610067092
 20
5.0852840103
 30
0.0
 11
1.8638109435
 21
5.0852840103
 31
0.0
  0
LINE
  5
225
330
1F
100
AcDbEntity
  8
0
  6
Continuous
 62
     7
370
    15
100
AcDbLine
 10
1.8638109435
 20
5.0852840103
 30
0.0
 11
1.8638109435
 21
5.0924955453
 31
0.0
  0
LINE
  5
226
330
1F
100
AcDbEntity
  8
0
  6
Continuous
 62
     7
370
    15
100
AcDbLine
 10
1.8638109435
 20
5.0924955453
 30
0.0
 11
1.8674168485
 21
5.0924955453
 31
0.0
  0
LINE
  5
227
330
1F
100
AcDbEntity
  8
0
  6
Continuous
 62
     7
370
    15
100
AcDbLine
 10
1.8674168485
 20
5.0924955453
 30
0.0
 11
1.8674168485
 21
5.0957006699
 31
0.0
  0
LINE
  5
228
330
1F
100
AcDbEntity
  8
0
  6
Continuous
 62
     7
370
    15
100
AcDbLine
 10
1.8674168485
 20
5.0957006699
 30
0.0
 11
1.8638109435
 21
5.0957006699
 31
0.0
  0
LINE
  5
229
330
1F
100
AcDbEntity
  8
0
  6
Continuous
 62
     7
370
    15
100
AcDbLine
 10
1.8638109435
 20
5.0957006699
 30
0.0
 11
1.8638109435
 21
5.1173352934
 31
0.0
  0
LINE
  5
22A
330
1F
100
AcDbEntity
  8
0
  6
Continuous
 62
     7
370
    15
100
AcDbLine
 10
1.8638109435
 20
5.1173352934
 30
0.0
 11
1.8632412967
 21
5.1173352934
 31
0.0
  0
LINE
  5
22B
330
1F
100
AcDbEntity
  8
0
  6
Continuous
 62
     7
370
    15
100
AcDbLine
 10
1.8632412967
 20
5.1173352934
 30
0.0
 11
1.8461829871
 21
5.0924955453
 31
0.0
  0
LINE
  5
22C
330
1F
100
AcDbEntity
  8
0
  6
Continuous
 62
     7
370
    15
100
AcDbLine
 10
1.8077212715
 20
5.0957006699
 30
0.0
 11
1.8197404659
 21
5.0957006699
 31
0.0
  0
LINE
  5
22D
330
1F
100
AcDbEntity
  8
0
  6
Continuous
 62
     7
370
    15
100
AcDbLine
 10
1.8197404659
 20
5.0957006699
 30
0.0
 11
1.8197404659
 21
5.0989058038
 31
0.0
  0
LINE
  5
22E
330
1F
100
AcDbEntity
  8
0
  6
Continuous
 62
     7
370
    15
100
AcDbLine
 10
1.8197404659
 20
5.0989058038
 30
0.0
 11
1.8077212715
 21
5.0989058038
 31
0.0
  0
LINE
  5
22F
330
1F
100
AcDbEntity
  8
0
  6
Continuous
 62
     7
370
    15
100
AcDbLine
 10
1.8077212715
 20
5.0989058038
 30
0.0
 11
1.8077212715
 21
5.0957006699
 31
0.0
  0
ARC
  5
230
330
1F
100
AcDbEntity
  8
0
  6
Continuous
 62
     7
370
    15
100
AcDbCircle
 10
1.7955177144
 20
5.0930754418
 30
0.0
 40
0.008599012058387
100
AcDbArc
 50
267.8075509499
 51
359.0975337977
  0
ARC
  5
231
330
1F
100
AcDbEntity
  8
0
  6
Continuous
 62
     7
370
    15
100
AcDbCircle
 10
1.7901631152
 20
5.0904841882
 30
0.0
 40
0.0141670226893225
100
AcDbArc
 50
9.9824994483
 51
62.2766021935
  0
ARC
  5
232
330
1F
100
AcDbEntity
  8
0
  6
Continuous
 62
     7
370
    15
100
AcDbCircle
 10
1.848378643
 20
5.177115117
 30
0.0
 40
0.0903022712376871
100
AcDbArc
 50
231.8147087506
 51
235.1317848433
  0
ARC
  5
233
330
1F
100
AcDbEntity
  8
0
  6
Continuous
 62
     7
370
    15
100
AcDbCircle
 10
1.7960534508
 20
5.110465545
 30
0.0
 40
0.0055673878040035
100
AcDbArc
 50
183.0034540217
 51
231.0450086508
  0
ARC
  5
234
330
1F
100
AcDbEntity
  8
0
  6
Continuous
 62
     7
370
    15
100
AcDbCircle
 10
1.7947366812
 20
5.109891375
 30
0.0
 40
0.0042523622494652
100
AcDbArc
 50
85.4216984277
 51
176.191362704
  0
ARC
  5
235
330
1F
100
AcDbEntity
  8
0
  6
Continuous
 62
     7
370
    15
100
AcDbCircle
 10
1.7945487679
 20
5.1066742798
 30
0.0
 40
0.0074745146862056
100
AcDbArc
 50
27.4837763919
 51
85.9542990506
  0
LINE
  5
236
330
1F
100
AcDbEntity
  8
0
  6
Continuous
 62
     7
370
    15
100
AcDbLine
 10
1.8011797204
 20
5.1101237492
 30
0.0
 11
1.8037149711
 21
5.1120455736
 31
0.0
  0
ARC
  5
237
330
1F
100
AcDbEntity
  8
0
  6
Continuous
 62
     7
370
    15
100
AcDbCircle
 10
1.7947811186
 20
5.1071811429
 30
0.0
 40
0.0101723353410851
100
AcDbArc
 50
28.5680353691
 51
86.573531079
  0
ARC
  5
238
330
1F
100
AcDbEntity
  8
0
  6
Continuous
 62
     7
370
    15
100
AcDbCircle
 10
1.7950332999
 20
5.1099996756
 30
0.0
 40
0.007344241100195
100
AcDbArc
 50
87.2232012862
 51
179.6669317542
  0
ARC
  5
239
330
1F
100
AcDbEntity
  8
0
  6
Continuous
 62
     7
370
    15
100
AcDbCircle
 10
1.7951965335
 20
5.1100988994
 30
0.0
 40
0.0075075635156888
100
AcDbArc
 50
180.4314338803
 51
219.8842558533
  0
ARC
  5
23A
330
1F
100
AcDbEntity
  8
0
  6
Continuous
 62
     7
370
    15
100
AcDbCircle
 10
1.8102042512
 20
5.1250961289
 30
0.0
 40
0.028702341205374
100
AcDbArc
 50
223.6487415449
 51
236.9637843497
  0
ARC
  5
23B
330
1F
100
AcDbEntity
  8
0
  6
Continuous
 62
     7
370
    15
100
AcDbCircle
 10
1.7781696293
 20
5.0768297573
 30
0.0
 40
0.0292299317874198
100
AcDbArc
 50
41.1167670649
 51
55.9010541093
  0
ARC
  5
23C
330
1F
100
AcDbEntity
  8
0
  6
Continuous
 62
     7
370
    15
100
AcDbCircle
 10
1.7960284797
 20
5.0927924477
 30
0.0
 40
0.0052861180198815
100
AcDbArc
 50
2.0748263209
 51
38.0595685785
  0
ARC
  5
23D
330
1F
100
AcDbEntity
  8
0
  6
Continuous
 62
     7
370
    15
100
AcDbCircle
 10
1.7955575268
 20
5.0934483865
 30
0.0
 40
0.0057723294526327
100
AcDbArc
 50
266.3370452084
 51
355.3838453741
  0
ARC
  5
23E
330
1F
100
AcDbEntity
  8
0
  6
Continuous
 62
     7
370
    15
100
AcDbCircle
 10
1.7964192555
 20
5.0964319914
 30
0.0
 40
0.0088302983347733
100
AcDbArc
 50
203.6042617491
 51
261.9897396132
  0
LINE
  5
23F
330
1F
100
AcDbEntity
  8
0
  6
Continuous
 62
     7
370
    15
100
AcDbLine
 10
1.7883277622
 20
5.0928961882
 30
0.0
 11
1.7856860327
 21
5.091312399
 31
0.0
  0
ARC
  5
240
330
1F
100
AcDbEntity
  8
0
  6
Continuous
 62
     7
370
    15
100
AcDbCircle
 10
1.7953983409
 20
5.0948001603
 30
0.0
 40
0.0103195644336904
100
AcDbArc
 50
199.7535868703
 51
268.8362373449
  0
LWPOLYLINE
  5
241
330
1F
100
AcDbEntity
  8
0
  6
Continuous
 62
     7
370
    15
100
AcDbPolyline
 90
        6
 70
   128
 43
0.0
 10
1.8326862897
 20
5.1141301687
 10
1.8356278024
 20
5.1136001215
 10
1.837362849
 20
5.1125241689
 10
1.8383959571
 20
5.111320792
 10
1.8388866981
 20
5.1100734247
 10
1.8389711771
 20
5.1092285703
  0
LWPOLYLINE
  5
242
330
1F
100
AcDbEntity
  8
0
  6
Continuous
 62
     7
370
    15
100
AcDbPolyline
 90
        6
 70
   128
 43
0.0
 10
1.8389711771
 20
5.1092285703
 10
1.838695447
 20
5.1077772563
 10
1.8379090294
 20
5.1065163592
 10
1.8367929089
 20
5.105594469
 10
1.8341092333
 20
5.104485746
 10
1.8309585763
 20
5.1041141336
  0
LINE
  5
243
330
1F
100
AcDbEntity
  8
0
  6
Continuous
 62
     7
370
    15
100
AcDbLine
 10
1.8309585763
 20
5.1041141336
 30
0.0
 11
1.8309585763
 21
5.1009090089
 31
0.0
  0
LWPOLYLINE
  5
244
330
1F
100
AcDbEntity
  8
0
  6
Continuous
 62
     7
370
    15
100
AcDbPolyline
 90
        6
 70
   128
 43
0.0
 10
1.8309585763
 20
5.1009090089
 10
1.8346944265
 20
5.1004915454
 10
1.8372736767
 20
5.0996014724
 10
1.8390186966
 20
5.0982076052
 10
1.8401978829
 20
5.0963120796
 10
1.8405739319
 20
5.0942984336
  0
ARC
  5
245
330
1F
100
AcDbEntity
  8
0
  6
Continuous
 62
     7
370
    15
100
AcDbCircle
 10
1.8333403944
 20
5.0949111976
 30
0.0
 40
0.0072594452691928
100
AcDbArc
 50
264.2838911989
 51
355.1579474325
  0
ARC
  5
246
330
1F
100
AcDbEntity
  8
0
  6
Continuous
 62
     7
370
    15
100
AcDbCircle
 10
1.8323402009
 20
5.0957396432
 30
0.0
 40
0.0080565627469504
100
AcDbArc
 50
232.1495274619
 51
271.9714388398
  0
ARC
  5
247
330
1F
100
AcDbEntity
  8
0
  6
Continuous
 62
     7
370
    15
100
AcDbCircle
 10
1.83338033
 20
5.0956223531
 30
0.0
 40
0.0086484302752507
100
AcDbArc
 50
192.8600753179
 51
226.2210417962
  0
LINE
  5
248
330
1F
100
AcDbEntity
  8
0
  6
Continuous
 62
     7
370
    15
100
AcDbLine
 10
1.8249488324
 20
5.0936974648
 30
0.0
 11
1.8221443048
 21
5.0936974648
 31
0.0
  0
ARC
  5
249
330
1F
100
AcDbEntity
  8
0
  6
Continuous
 62
     7
370
    15
100
AcDbCircle
 10
1.8323541436
 20
5.0947438306
 30
0.0
 40
0.0102633176338777
100
AcDbArc
 50
185.8515866801
 51
271.1894771315
  0
ARC
  5
24A
330
1F
100
AcDbEntity
  8
0
  6
Continuous
 62
     7
370
    15
100
AcDbCircle
 10
1.8330832064
 20
5.0947669706
 30
0.0
 40
0.0102971831663977
100
AcDbArc
 50
267.1276118373
 51
358.8906432811
  0
ARC
  5
24B
330
1F
100
AcDbEntity
  8
0
  6
Continuous
 62
     7
370
    15
100
AcDbCircle
 10
1.834352753
 20
5.0946248628
 30
0.0
 40
0.009025888142425
100
AcDbArc
 50
359.6365582945
 51
37.5061560337
  0
ARC
  5
24C
330
1F
100
AcDbEntity
  8
0
  6
Continuous
 62
     7
370
    15
100
AcDbCircle
 10
1.8348128814
 20
5.0950952405
 30
0.0
 40
0.0083750022313195
100
AcDbArc
 50
36.8699219318
 51
66.6961441215
  0
ARC
  5
24D
330
1F
100
AcDbEntity
  8
0
  6
Continuous
 62
     7
370
    15
100
AcDbCircle
 10
1.8344281685
 20
5.1091366493
 30
0.0
 40
0.0073479651888639
100
AcDbArc
 50
300.2158075238
 51
0.6191303757
  0
ARC
  5
24E
330
1F
100
AcDbEntity
  8
0
  6
Continuous
 62
     7
370
    15
100
AcDbCircle
 10
1.8330598177
 20
5.1086078905
 30
0.0
 40
0.0087370786390746
100
AcDbArc
 50
3.9913920034
 51
92.696726964
  0
ARC
  5
24F
330
1F
100
AcDbEntity
  8
0
  6
Continuous
 62
     7
370
    15
100
AcDbCircle
 10
1.8326665249
 20
5.10790851
 30
0.0
 40
0.0094268001199718
100
AcDbArc
 50
90.1080751155
 51
171.3734265353
  0
LINE
  5
250
330
1F
100
AcDbEntity
  8
0
  6
Continuous
 62
     7
370
    15
100
AcDbLine
 10
1.8233463709
 20
5.1093224726
 30
0.0
 11
1.8261508986
 21
5.1093224726
 31
0.0
  0
ARC
  5
251
330
1F
100
AcDbEntity
  8
0
  6
Continuous
 62
     7
370
    15
100
AcDbCircle
 10
1.832576132
 20
5.1074340891
 30
0.0
 40
0.0066969856732152
100
AcDbArc
 50
89.0575077419
 51
163.6218770876
  0
ARC
  5
252
330
1F
100
AcDbEntity
  8
0
  6
Continuous
 62
     7
370
    15
100
AcDbCircle
 10
1.8899272992
 20
5.0922415853
 30
0.0
 40
0.0181884620525289
100
AcDbArc
 50
143.4432409878
 51
174.4585991445
  0
ARC
  5
253
330
1F
100
AcDbEntity
  8
0
  6
Continuous
 62
     7
370
    15
100
AcDbCircle
 10
1.8812196404
 20
5.093879024
 30
0.0
 40
0.0093965555070622
100
AcDbArc
 50
179.274802682
 51
270.4229761627
  0
ARC
  5
254
330
1F
100
AcDbEntity
  8
0
  6
Continuous
 62
     7
370
    15
100
AcDbCircle
 10
1.8815509514
 20
5.093982979
 30
0.0
 40
0.0095038649046385
100
AcDbArc
 50
268.4206279279
 51
0.4299245173
  0
ARC
  5
255
330
1F
100
AcDbEntity
  8
0
  6
Continuous
 62
     7
370
    15
100
AcDbCircle
 10
1.8819191441
 20
5.0941776259
 30
0.0
 40
0.0091362371753273
100
AcDbArc
 50
359.2265133568
 51
90.8502994026
  0
ARC
  5
256
330
1F
100
AcDbEntity
  8
0
  6
Continuous
 62
     7
370
    15
100
AcDbCircle
 10
1.8819374597
 20
5.084076787
 30
0.0
 40
0.0192366856271464
100
AcDbArc
 50
90.458381985
 51
100.1506235963
  0
LINE
  5
257
330
1F
100
AcDbEntity
  8
0
  6
Continuous
 62
     7
370
    15
100
AcDbLine
 10
1.8785472533
 20
5.1030123771
 30
0.0
 11
1.8868041979
 21
5.1156388196
 31
0.0
  0
LINE
  5
258
330
1F
100
AcDbEntity
  8
0
  6
Continuous
 62
     7
370
    15
100
AcDbLine
 10
1.8868041979
 20
5.1156388196
 30
0.0
 11
1.8846444095
 21
5.1173352934
 31
0.0
  0
LINE
  5
259
330
1F
100
AcDbEntity
  8
0
  6
Continuous
 62
     7
370
    15
100
AcDbLine
 10
1.8846444095
 20
5.1173352934
 30
0.0
 11
1.8753171039
 21
5.1030749756
 31
0.0
  0
LINE
  5
25A
330
1F
100
AcDbEntity
  8
0
  6
Continuous
 62
     7
370
    15
100
AcDbLine
 10
1.9331218761
 20
5.0852840103
 30
0.0
 11
1.9415730052
 21
5.0852840103
 31
0.0
  0
ARC
  5
25B
330
1F
100
AcDbEntity
  8
0
  6
Continuous
 62
     7
370
    15
100
AcDbCircle
 10
1.9424976621
 20
5.0942915543
 30
0.0
 40
0.0090548792893147
100
AcDbArc
 50
264.1389116012
 51
359.1323943267
  0
ARC
  5
25C
330
1F
100
AcDbEntity
  8
0
  6
Continuous
 62
     7
370
    15
100
AcDbCircle
 10
1.9433605675
 20
5.094244838
 30
0.0
 40
0.0081914345451923
100
AcDbArc
 50
359.3677271073
 51
74.60183991
  0
ARC
  5
25D
330
1F
100
AcDbEntity
  8
0
  6
Continuous
 62
     7
370
    15
100
AcDbCircle
 10
1.9415870549
 20
5.1085928765
 30
0.0
 40
0.0075631882168854
100
AcDbArc
 50
301.4714795461
 51
1.4962501528
  0
ARC
  5
25E
330
1F
100
AcDbEntity
  8
0
  6
Continuous
 62
     7
370
    15
100
AcDbCircle
 10
1.9406416159
 20
5.1081210452
 30
0.0
 40
0.0085323411802104
100
AcDbArc
 50
4.4991777373
 51
99.5956574386
  0
LINE
  5
25F
330
1F
100
AcDbEntity
  8
0
  6
Continuous
 62
     7
370
    15
100
AcDbLine
 10
1.9392193257
 20
5.1165340076
 30
0.0
 11
1.9331218761
 21
5.1165340076
 31
0.0
  0
LINE
  5
260
330
1F
100
AcDbEntity
  8
0
  6
Continuous
 62
     7
370
    15
100
AcDbLine
 10
1.9331218761
 20
5.1165340076
 30
0.0
 11
1.9331218761
 21
5.0852840103
 31
0.0
  0
ARC
  5
261
330
1F
100
AcDbEntity
  8
0
  6
Continuous
 62
     7
370
    15
100
AcDbCircle
 10
1.9383517363
 20
5.0626055726
 30
0.0
 40
0.0375064246547434
100
AcDbArc
 50
81.9061149984
 51
90.8649858333
  0
ARC
  5
262
330
1F
100
AcDbEntity
  8
0
  6
Continuous
 62
     7
370
    15
100
AcDbCircle
 10
1.9429123048
 20
5.0939445248
 30
0.0
 40
0.0058384459336751
100
AcDbArc
 50
2.0605059897
 51
82.9145428192
  0
LWPOLYLINE
  5
263
330
1F
100
AcDbEntity
  8
0
  6
Continuous
 62
     7
370
    15
100
AcDbPolyline
 90
        6
 70
   128
 43
0.0
 10
1.9487469756
 20
5.0941544453
 10
1.9484061262
 20
5.0923558561
 10
1.947450164
 20
5.0907853126
 10
1.9459984741
 20
5.0895682316
 10
1.9442044681
 20
5.0888614623
 10
1.9399203843
 20
5.0884891349
  0
LINE
  5
264
330
1F
100
AcDbEntity
  8
0
  6
Continuous
 62
     7
370
    15
100
AcDbLine
 10
1.9399203843
 20
5.0884891349
 30
0.0
 11
1.9359264037
 21
5.0884891349
 31
0.0
  0
LINE
  5
265
330
1F
100
AcDbEntity
  8
0
  6
Continuous
 62
     7
370
    15
100
AcDbLine
 10
1.9359264037
 20
5.0884891349
 30
0.0
 11
1.9359264037
 21
5.1001077232
 31
0.0
  0
LINE
  5
266
330
1F
100
AcDbEntity
  8
0
  6
Continuous
 62
     7
370
    15
100
AcDbLine
 10
1.9359264037
 20
5.1001077232
 30
0.0
 11
1.9377855289
 21
5.1001077232
 31
0.0
  0
ARC
  5
267
330
1F
100
AcDbEntity
  8
0
  6
Continuous
 62
     7
370
    15
100
AcDbCircle
 10
1.8817408588
 20
5.0941975102
 30
0.0
 40
0.0065166470704671
100
AcDbArc
 50
267.3467419436
 51
357.2536579149
  0
ARC
  5
268
330
1F
100
AcDbEntity
  8
0
  6
Continuous
 62
     7
370
    15
100
AcDbCircle
 10
1.8810127857
 20
5.0940604217
 30
0.0
 40
0.0063868226503434
100
AcDbArc
 50
181.5714782623
 51
273.8281218792
  0
ARC
  5
269
330
1F
100
AcDbEntity
  8
0
  6
Continuous
 62
     7
370
    15
100
AcDbCircle
 10
1.8808890924
 20
5.0938544048
 30
0.0
 40
0.0062608033183751
100
AcDbArc
 50
87.1980627606
 51
179.7175423461
  0
ARC
  5
26A
330
1F
100
AcDbEntity
  8
0
  6
Continuous
 62
     7
370
    15
100
AcDbCircle
 10
1.8817688967
 20
5.0936476743
 30
0.0
 40
0.0064854780436487
100
AcDbArc
 50
2.0994958916
 51
95.075449842
  0
LWPOLYLINE
  5
26B
330
1F
100
AcDbEntity
  8
0
  6
Continuous
 62
     7
370
    15
100
AcDbPolyline
 90
        6
 70
   128
 43
0.0
 10
1.9397326531
 20
5.113328883
 10
1.9429331761
 20
5.1129642005
 10
1.9444065725
 20
5.1123455493
 10
1.9455927987
 20
5.1112504753
 10
1.9461829786
 20
5.1099937032
 10
1.9463431367
 20
5.1087340252
  0
LWPOLYLINE
  5
26C
330
1F
100
AcDbEntity
  8
0
  6
Continuous
 62
     7
370
    15
100
AcDbPolyline
 90
        6
 70
   128
 43
0.0
 10
1.9463431367
 20
5.1087340252
 10
1.946030447
 20
5.1070003261
 10
1.9451208309
 20
5.1054790987
 10
1.9438207926
 20
5.1043860963
 10
1.9421614251
 20
5.1037107682
 10
1.9378107553
 20
5.103312857
  0
LINE
  5
26D
330
1F
100
AcDbEntity
  8
0
  6
Continuous
 62
     7
370
    15
100
AcDbLine
 10
1.9378107553
 20
5.103312857
 30
0.0
 11
1.9359264037
 21
5.103312857
 31
0.0
  0
LINE
  5
26E
330
1F
100
AcDbEntity
  8
0
  6
Continuous
 62
     7
370
    15
100
AcDbLine
 10
1.9359264037
 20
5.103312857
 30
0.0
 11
1.9359264037
 21
5.113328883
 31
0.0
  0
LINE
  5
26F
330
1F
100
AcDbEntity
  8
0
  6
Continuous
 62
     7
370
    15
100
AcDbLine
 10
1.9359264037
 20
5.113328883
 30
0.0
 11
1.9397326531
 21
5.113328883
 31
0.0
  0
LINE
  5
270
330
1F
100
AcDbEntity
  8
0
  6
Continuous
 62
     7
370
    15
100
AcDbLine
 10
1.8516917235
 20
5.0957006699
 30
0.0
 11
1.8610067092
 21
5.1092723865
 31
0.0
  0
LINE
  5
271
330
1F
100
AcDbEntity
  8
0
  6
Continuous
 62
     7
370
    15
100
AcDbLine
 10
1.8610067092
 20
5.1092723865
 30
0.0
 11
1.8610067092
 21
5.0957006699
 31
0.0
  0
LINE
  5
272
330
1F
100
AcDbEntity
  8
0
  6
Continuous
 62
     7
370
    15
100
AcDbLine
 10
1.8610067092
 20
5.0957006699
 30
0.0
 11
1.8516917235
 21
5.0957006699
 31
0.0
  0
LINE
  5
273
330
1F
100
AcDbEntity
  8
0
  6
Continuous
 62
     7
370
    15
100
AcDbLine
 10
1.8997685014
 20
5.0957006699
 30
0.0
 11
1.9090834872
 21
5.1092723865
 31
0.0
  0
LINE
  5
274
330
1F
100
AcDbEntity
  8
0
  6
Continuous
 62
     7
370
    15
100
AcDbLine
 10
1.9090834872
 20
5.1092723865
 30
0.0
 11
1.9090834872
 21
5.0957006699
 31
0.0
  0
LINE
  5
275
330
1F
100
AcDbEntity
  8
0
  6
Continuous
 62
     7
370
    15
100
AcDbLine
 10
1.9090834872
 20
5.0957006699
 30
0.0
 11
1.8997685014
 21
5.0957006699
 31
0.0
  0
LINE
  5
276
330
1F
100
AcDbEntity
  8
0
  6
Continuous
 62
     7
370
    15
100
AcDbLine
 10
1.5288700928
 20
4.9675947674
 30
0.0
 11
8.8596494603
 21
4.9675947674
 31
0.0
  0
LINE
  5
277
330
1F
100
AcDbEntity
  8
0
  6
Continuous
 62
     7
370
    15
100
AcDbLine
 10
8.9769022391
 20
5.7459227202
 30
0.0
 11
8.9669404609
 21
5.7459227202
 31
0.0
  0
ELLIPSE
  5
278
330
1F
100
AcDbEntity
  8
0
  6
Continuous
 62
     7
370
    15
100
AcDbEllipse
 10
8.9651905569
 20
5.7459227531
 30
0.0
 11
0.0
 21
0.01000000000000068
 31
0.0
210
0.0
220
0.0
230
1.0
 40
0.1749773271
 41
4.712388980384692
 42
6.248278722139885
  0
ARC
  5
279
330
1F
100
AcDbEntity
  8
0
  6
Continuous
 62
     7
370
    15
100
AcDbCircle
 10
8.9651999808
 20
5.7659301345
 30
0.0
 40
0.0100135769278793
100
AcDbArc
 50
270.2962743217
 51
359.888166193
  0
ELLIPSE
  5
27A
330
1F
100
AcDbEntity
  8
0
  6
Continuous
 62
     7
370
    15
100
AcDbEllipse
 10
1.4233289962
 20
5.7459227531
 30
0.0
 11
0.0
 21
0.01000000000000068
 31
0.0
210
0.0
220
0.0
230
1.0
 40
0.1749773271
 41
0.0349065850398969
 42
1.570796326794897
  0
LINE
  5
27B
330
1F
100
AcDbEntity
  8
0
  6
Continuous
 62
     7
370
    15
100
AcDbLine
 10
1.4116173139
 20
5.7459227202
 30
0.0
 11
1.4215790922
 21
5.7459227202
 31
0.0
  0
ARC
  5
27C
330
1F
100
AcDbEntity
  8
0
  6
Continuous
 62
     7
370
    15
100
AcDbCircle
 10
1.4233195723
 20
5.7659301345
 30
0.0
 40
0.0100135769278762
100
AcDbArc
 50
180.1118338069
 51
269.7037256783
  0
LINE
  5
27D
330
1F
100
AcDbEntity
  8
0
  6
Continuous
 62
     7
370
    15
100
AcDbLine
 10
1.4215790922
 20
5.2652365231
 30
0.0
 11
1.4215790922
 21
5.7459227202
 31
0.0
  0
LINE
  5
27E
330
1F
100
AcDbEntity
  8
0
  6
Continuous
 62
     7
370
    15
100
AcDbLine
 10
1.4116173139
 20
5.2652365231
 30
0.0
 11
1.4215790922
 21
5.2652365231
 31
0.0
  0
LINE
  5
27F
330
1F
100
AcDbEntity
  8
0
  6
Continuous
 62
     7
370
    15
100
AcDbLine
 10
8.9669404609
 20
5.2652365231
 30
0.0
 11
8.9669404609
 21
5.7459227202
 31
0.0
  0
LINE
  5
280
330
1F
100
AcDbEntity
  8
0
  6
Continuous
 62
     7
370
    15
100
AcDbLine
 10
8.9769022391
 20
5.2652365231
 30
0.0
 11
8.9669404609
 21
5.2652365231
 31
0.0
  0
ARC
  5
281
330
1F
100
AcDbEntity
  8
0
  6
Continuous
 62
     7
370
    15
100
AcDbCircle
 10
8.9651998808
 20
5.2452290826
 30
0.0
 40
0.0100136770414023
100
AcDbArc
 50
0.1122976644
 51
89.7031567163
  0
ELLIPSE
  5
282
330
1F
100
AcDbEntity
  8
0
  6
Continuous
 62
     7
370
    15
100
AcDbEllipse
 10
8.9651905569
 20
5.2652365286
 30
0.0
 11
0.0
 21
0.009999999999999787
 31
0.0
210
0.0
220
0.0
230
1.0
 40
0.1749773271
 41
3.17649923862864
 42
4.712388980384692
  0
ELLIPSE
  5
283
330
1F
100
AcDbEntity
  8
0
  6
Continuous
 62
     7
370
    15
100
AcDbEllipse
 10
1.4233289962
 20
5.2652365286
 30
0.0
 11
0.0
 21
0.009999999999999787
 31
0.0
210
0.0
220
0.0
230
1.0
 40
0.1749773271
 41
1.570796326794897
 42
3.106686068550274
  0
ARC
  5
284
330
1F
100
AcDbEntity
  8
0
  6
Continuous
 62
     7
370
    15
100
AcDbCircle
 10
1.4233196722
 20
5.2452290826
 30
0.0
 40
0.0100136770414004
100
AcDbArc
 50
90.2968432837
 51
179.8877023356
  0
LINE
  5
285
330
1F
100
AcDbEntity
  8
0
  6
Continuous
 62
     7
370
    15
100
AcDbLine
 10
1.4215790922
 20
5.7459227202
 30
0.0
 11
1.4680660218
 21
5.7459227202
 31
0.0
  0
LINE
  5
286
330
1F
100
AcDbEntity
  8
0
  6
Continuous
 62
     7
370
    15
100
AcDbLine
 10
1.4680660218
 20
5.7559166914
 30
0.0
 11
1.4232677927
 21
5.7559166914
 31
0.0
  0
LINE
  5
287
330
1F
100
AcDbEntity
  8
0
  6
Continuous
 62
     7
370
    15
100
AcDbLine
 10
1.4680660218
 20
5.7559166914
 30
0.0
 11
1.4680660218
 21
5.7459227202
 31
0.0
  0
LINE
  5
288
330
1F
100
AcDbEntity
  8
0
  6
Continuous
 62
     7
370
    15
100
AcDbLine
 10
8.9204535312
 20
5.7459227202
 30
0.0
 11
8.91045978
 21
5.7459227202
 31
0.0
  0
ARC
  5
289
330
1F
100
AcDbEntity
  8
0
  6
Continuous
 62
     7
370
    15
100
AcDbCircle
 10
8.9204678148
 20
5.7459086569
 30
0.0
 40
0.0100080446931786
100
AcDbArc
 50
90.0817732108
 51
179.919488056
  0
LINE
  5
28A
330
1F
100
AcDbEntity
  8
0
  6
Continuous
 62
     7
370
    15
100
AcDbLine
 10
8.9204535312
 20
5.7559166914
 30
0.0
 11
8.9204535312
 21
5.7459227202
 31
0.0
  0
LINE
  5
28B
330
1F
100
AcDbEntity
  8
0
  6
Continuous
 62
     7
370
    15
100
AcDbLine
 10
8.9204535312
 20
5.7559166914
 30
0.0
 11
8.9652517604
 21
5.7559166914
 31
0.0
  0
LINE
  5
28C
330
1F
100
AcDbEntity
  8
0
  6
Continuous
 62
     7
370
    15
100
AcDbLine
 10
8.9669404609
 20
5.7459227202
 30
0.0
 11
8.9204535312
 21
5.7459227202
 31
0.0
  0
ARC
  5
28D
330
1F
100
AcDbEntity
  8
0
  6
Continuous
 62
     7
370
    15
100
AcDbCircle
 10
1.4680517383
 20
5.7459086569
 30
0.0
 40
0.0100080446931786
100
AcDbArc
 50
0.080511944
 51
89.9182267892
  0
LINE
  5
28E
330
1F
100
AcDbEntity
  8
0
  6
Continuous
 62
     7
370
    15
100
AcDbLine
 10
1.4680660218
 20
5.7459227202
 30
0.0
 11
1.4780597731
 21
5.7459227202
 31
0.0
  0
LINE
  5
28F
330
1F
100
AcDbEntity
  8
0
  6
Continuous
 62
     7
370
    15
100
AcDbLine
 10
8.9204535312
 20
5.2652365231
 30
0.0
 11
8.9669404609
 21
5.2652365231
 31
0.0
  0
LINE
  5
290
330
1F
100
AcDbEntity
  8
0
  6
Continuous
 62
     7
370
    15
100
AcDbLine
 10
8.9204535312
 20
5.7459227202
 30
0.0
 11
8.9204535312
 21
5.2652365231
 31
0.0
  0
LINE
  5
291
330
1F
100
AcDbEntity
  8
0
  6
Continuous
 62
     7
370
    15
100
AcDbLine
 10
8.91045978
 20
5.2652365231
 30
0.0
 11
8.91045978
 21
5.7459227202
 31
0.0
  0
LINE
  5
292
330
1F
100
AcDbEntity
  8
0
  6
Continuous
 62
     7
370
    15
100
AcDbLine
 10
8.9204535312
 20
5.2652365231
 30
0.0
 11
8.91045978
 21
5.2652365231
 31
0.0
  0
LINE
  5
293
330
1F
100
AcDbEntity
  8
0
  6
Continuous
 62
     7
370
    15
100
AcDbLine
 10
1.4680660218
 20
5.7459227202
 30
0.0
 11
1.4680660218
 21
5.2652365231
 31
0.0
  0
LINE
  5
294
330
1F
100
AcDbEntity
  8
0
  6
Continuous
 62
     7
370
    15
100
AcDbLine
 10
1.4780597731
 20
5.2652365231
 30
0.0
 11
1.4780597731
 21
5.7459227202
 31
0.0
  0
LINE
  5
295
330
1F
100
AcDbEntity
  8
0
  6
Continuous
 62
     7
370
    15
100
AcDbLine
 10
1.4680660218
 20
5.2652365231
 30
0.0
 11
1.4780597731
 21
5.2652365231
 31
0.0
  0
LINE
  5
296
330
1F
100
AcDbEntity
  8
0
  6
Continuous
 62
     7
370
    15
100
AcDbLine
 10
1.4680660218
 20
5.2652365231
 30
0.0
 11
1.4215790922
 21
5.2652365231
 31
0.0
  0
ARC
  5
297
330
1F
100
AcDbEntity
  8
0
  6
Continuous
 62
     7
370
    15
100
AcDbCircle
 10
2.7255394044
 20
5.5055796409
 30
0.0
 40
0.0647806926189916
100
AcDbArc
 50
269.9737954415
 51
90.0262045585
  0
LINE
  5
298
330
1F
100
AcDbEntity
  8
0
  6
Continuous
 62
     7
370
    15
100
AcDbLine
 10
2.7255098957
 20
5.4407989683
 30
0.0
 11
2.7255098957
 21
5.4430796453
 31
0.0
  0
ARC
  5
299
330
1F
100
AcDbEntity
  8
0
  6
Continuous
 62
     7
370
    15
100
AcDbCircle
 10
2.7255097765
 20
5.5055796409
 30
0.0
 40
0.0625000000000009
100
AcDbArc
 50
270.0
 51
90.0
  0
LINE
  5
29A
330
1F
100
AcDbEntity
  8
0
  6
Continuous
 62
     7
370
    15
100
AcDbLine
 10
2.7255098957
 20
5.5703603116
 30
0.0
 11
2.7255098957
 21
5.5680796347
 31
0.0
  0
ARC
  5
29B
330
1F
100
AcDbEntity
  8
0
  6
Continuous
 62
     7
370
    15
100
AcDbCircle
 10
6.7255097765
 20
5.5055796409
 30
0.0
 40
0.0625000000000009
100
AcDbArc
 50
270.0
 51
90.0
  0
LINE
  5
29C
330
1F
100
AcDbEntity
  8
0
  6
Continuous
 62
     7
370
    15
100
AcDbLine
 10
6.7255098474
 20
5.5707890867
 30
0.0
 11
6.7255098474
 21
5.5680796347
 31
0.0
  0
ARC
  5
29D
330
1F
100
AcDbEntity
  8
0
  6
Continuous
 62
     7
370
    15
100
AcDbCircle
 10
6.7254799526
 20
5.5055796409
 30
0.0
 40
0.0652094636897821
100
AcDbArc
 50
270.0262045585
 51
89.9737954415
  0
LINE
  5
29E
330
1F
100
AcDbEntity
  8
0
  6
Continuous
 62
     7
370
    15
100
AcDbLine
 10
6.7255098474
 20
5.4403701933
 30
0.0
 11
6.7255098474
 21
5.4430796453
 31
0.0
  0
LINE
  5
29F
330
1F
100
AcDbEntity
  8
0
  6
Continuous
 62
     7
370
    15
100
AcDbLine
 10
8.2255097193
 20
5.5701030613
 30
0.0
 11
7.6630096573
 21
5.5703603116
 31
0.0
  0
LINE
  5
2A0
330
1F
100
AcDbEntity
  8
0
  6
Continuous
 62
     7
370
    15
100
AcDbLine
 10
8.2255097193
 20
5.5701030613
 30
0.0
 11
8.2255097193
 21
5.5680796347
 31
0.0
  0
LINE
  5
2A1
330
1F
100
AcDbEntity
  8
0
  6
Continuous
 62
     7
370
    15
100
AcDbLine
 10
8.2255097193
 20
5.5680796347
 30
0.0
 11
7.6630096573
 21
5.5680796347
 31
0.0
  0
LINE
  5
2A2
330
1F
100
AcDbEntity
  8
0
  6
Continuous
 62
     7
370
    15
100
AcDbLine
 10
7.6630096573
 20
5.5703603116
 30
0.0
 11
7.6630096573
 21
5.5680796347
 31
0.0
  0
ARC
  5
2A3
330
1F
100
AcDbEntity
  8
0
  6
Continuous
 62
     7
370
    15
100
AcDbCircle
 10
4.2255397181
 20
5.5055796409
 30
0.0
 40
0.0654667263322572
100
AcDbArc
 50
269.9737954415
 51
90.0262045585
  0
LINE
  5
2A4
330
1F
100
AcDbEntity
  8
0
  6
Continuous
 62
     7
370
    15
100
AcDbLine
 10
4.2255097676
 20
5.4401129063
 30
0.0
 11
4.2255097676
 21
5.4430796453
 31
0.0
  0
ARC
  5
2A5
330
1F
100
AcDbEntity
  8
0
  6
Continuous
 62
     7
370
    15
100
AcDbCircle
 10
4.2255097765
 20
5.5055796409
 30
0.0
 40
0.0625000000000009
100
AcDbArc
 50
270.0
 51
90.0
  0
LINE
  5
2A6
330
1F
100
AcDbEntity
  8
0
  6
Continuous
 62
     7
370
    15
100
AcDbLine
 10
4.2255097676
 20
5.5710463737
 30
0.0
 11
4.2255097676
 21
5.5680796347
 31
0.0
  0
CIRCLE
  5
2A7
330
1F
100
AcDbEntity
  8
0
  6
Continuous
 62
     7
370
    15
100
AcDbCircle
 10
2.4442597765
 20
5.5055796409
 30
0.0
 40
0.0187499999999998
  0
ARC
  5
2A8
330
1F
100
AcDbEntity
  8
0
  6
Continuous
 62
     7
370
    15
100
AcDbCircle
 10
2.1630097765
 20
5.5055796409
 30
0.0
 40
0.0625000000000009
100
AcDbArc
 50
90.0
 51
270.0
  0
LINE
  5
2A9
330
1F
100
AcDbEntity
  8
0
  6
Continuous
 62
     7
370
    15
100
AcDbLine
 10
2.1630098338
 20
5.5680796347
 30
0.0
 11
2.7255098957
 21
5.5680796347
 31
0.0
  0
LINE
  5
2AA
330
1F
100
AcDbEntity
  8
0
  6
Continuous
 62
     7
370
    15
100
AcDbLine
 10
2.7255098957
 20
5.4430796453
 30
0.0
 11
2.1630098338
 21
5.4430796453
 31
0.0
  0
CIRCLE
  5
2AB
330
1F
100
AcDbEntity
  8
0
  6
Continuous
 62
     7
370
    15
100
AcDbCircle
 10
3.9442597765
 20
5.5055796409
 30
0.0
 40
0.0187499999999998
  0
ARC
  5
2AC
330
1F
100
AcDbEntity
  8
0
  6
Continuous
 62
     7
370
    15
100
AcDbCircle
 10
3.6630097765
 20
5.5055796409
 30
0.0
 40
0.0625000000000009
100
AcDbArc
 50
90.0
 51
270.0
  0
LINE
  5
2AD
330
1F
100
AcDbEntity
  8
0
  6
Continuous
 62
     7
370
    15
100
AcDbLine
 10
3.6630097057
 20
5.5680796347
 30
0.0
 11
4.2255097676
 21
5.5680796347
 31
0.0
  0
LINE
  5
2AE
330
1F
100
AcDbEntity
  8
0
  6
Continuous
 62
     7
370
    15
100
AcDbLine
 10
4.2255097676
 20
5.4430796453
 30
0.0
 11
3.6630097057
 21
5.4430796453
 31
0.0
  0
LINE
  5
2AF
330
1F
100
AcDbEntity
  8
0
  6
Continuous
 62
     7
370
    15
100
AcDbLine
 10
2.1630098338
 20
5.5701030613
 30
0.0
 11
2.1630098338
 21
5.5680796347
 31
0.0
  0
LINE
  5
2B0
330
1F
100
AcDbEntity
  8
0
  6
Continuous
 62
     7
370
    15
100
AcDbLine
 10
2.1630098338
 20
5.5701030613
 30
0.0
 11
2.7255098957
 21
5.5703603116
 31
0.0
  0
ARC
  5
2B1
330
1F
100
AcDbEntity
  8
0
  6
Continuous
 62
     7
370
    15
100
AcDbCircle
 10
7.6630097765
 20
5.5055796409
 30
0.0
 40
0.0625000000000009
100
AcDbArc
 50
90.0
 51
270.0
  0
LINE
  5
2B2
330
1F
100
AcDbEntity
  8
0
  6
Continuous
 62
     7
370
    15
100
AcDbLine
 10
7.6630096573
 20
5.4407989683
 30
0.0
 11
7.6630096573
 21
5.4430796453
 31
0.0
  0
ARC
  5
2B3
330
1F
100
AcDbEntity
  8
0
  6
Continuous
 62
     7
370
    15
100
AcDbCircle
 10
7.6629801487
 20
5.5055796409
 30
0.0
 40
0.0647806926189916
100
AcDbArc
 50
89.9737954415
 51
270.0262045585
  0
CIRCLE
  5
2B4
330
1F
100
AcDbEntity
  8
0
  6
Continuous
 62
     7
370
    15
100
AcDbCircle
 10
7.9442597765
 20
5.5055796409
 30
0.0
 40
0.0187499999999998
  0
ARC
  5
2B5
330
1F
100
AcDbEntity
  8
0
  6
Continuous
 62
     7
370
    15
100
AcDbCircle
 10
8.2255097765
 20
5.5055796409
 30
0.0
 40
0.0625000000000009
100
AcDbArc
 50
270.0
 51
90.0
  0
LINE
  5
2B6
330
1F
100
AcDbEntity
  8
0
  6
Continuous
 62
     7
370
    15
100
AcDbLine
 10
7.6630096573
 20
5.4430796453
 30
0.0
 11
8.2255097193
 21
5.4430796453
 31
0.0
  0
ARC
  5
2B7
330
1F
100
AcDbEntity
  8
0
  6
Continuous
 62
     7
370
    15
100
AcDbCircle
 10
8.2254802664
 20
5.5055796409
 30
0.0
 40
0.0645234299765155
100
AcDbArc
 50
270.0262045585
 51
89.9737954415
  0
LINE
  5
2B8
330
1F
100
AcDbEntity
  8
0
  6
Continuous
 62
     7
370
    15
100
AcDbLine
 10
8.2255097193
 20
5.4410562187
 30
0.0
 11
8.2255097193
 21
5.4430796453
 31
0.0
  0
ARC
  5
2B9
330
1F
100
AcDbEntity
  8
0
  6
Continuous
 62
     7
370
    15
100
AcDbCircle
 10
2.1630392867
 20
5.5055796409
 30
0.0
 40
0.0645234299765155
100
AcDbArc
 50
90.0262045585
 51
269.9737954415
  0
LINE
  5
2BA
330
1F
100
AcDbEntity
  8
0
  6
Continuous
 62
     7
370
    15
100
AcDbLine
 10
2.1630098338
 20
5.4410562187
 30
0.0
 11
2.1630098338
 21
5.4430796453
 31
0.0
  0
LINE
  5
2BB
330
1F
100
AcDbEntity
  8
0
  6
Continuous
 62
     7
370
    15
100
AcDbLine
 10
3.6630097057
 20
5.5707890867
 30
0.0
 11
3.6630097057
 21
5.5680796347
 31
0.0
  0
LINE
  5
2BC
330
1F
100
AcDbEntity
  8
0
  6
Continuous
 62
     7
370
    15
100
AcDbLine
 10
3.6630097057
 20
5.5707890867
 30
0.0
 11
4.2255097676
 21
5.5710463737
 31
0.0
  0
CIRCLE
  5
2BD
330
1F
100
AcDbEntity
  8
0
  6
Continuous
 62
     7
370
    15
100
AcDbCircle
 10
6.4442597765
 20
5.5055796409
 30
0.0
 40
0.0187499999999998
  0
ARC
  5
2BE
330
1F
100
AcDbEntity
  8
0
  6
Continuous
 62
     7
370
    15
100
AcDbCircle
 10
6.1630097765
 20
5.5055796409
 30
0.0
 40
0.0625000000000009
100
AcDbArc
 50
90.0
 51
270.0
  0
LINE
  5
2BF
330
1F
100
AcDbEntity
  8
0
  6
Continuous
 62
     7
370
    15
100
AcDbLine
 10
6.7255098474
 20
5.5680796347
 30
0.0
 11
6.1630097855
 21
5.5680796347
 31
0.0
  0
LINE
  5
2C0
330
1F
100
AcDbEntity
  8
0
  6
Continuous
 62
     7
370
    15
100
AcDbLine
 10
6.1630097855
 20
5.4430796453
 30
0.0
 11
6.7255098474
 21
5.4430796453
 31
0.0
  0
ARC
  5
2C1
330
1F
100
AcDbEntity
  8
0
  6
Continuous
 62
     7
370
    15
100
AcDbCircle
 10
3.6630396005
 20
5.5055796409
 30
0.0
 40
0.0652094636897821
100
AcDbArc
 50
90.0262045585
 51
269.9737954415
  0
LINE
  5
2C2
330
1F
100
AcDbEntity
  8
0
  6
Continuous
 62
     7
370
    15
100
AcDbLine
 10
3.6630097057
 20
5.4403701933
 30
0.0
 11
3.6630097057
 21
5.4430796453
 31
0.0
  0
LINE
  5
2C3
330
1F
100
AcDbEntity
  8
0
  6
Continuous
 62
     7
370
    15
100
AcDbLine
 10
6.7255098474
 20
5.5707890867
 30
0.0
 11
6.1630097855
 21
5.5710463737
 31
0.0
  0
LINE
  5
2C4
330
1F
100
AcDbEntity
  8
0
  6
Continuous
 62
     7
370
    15
100
AcDbLine
 10
6.1630097855
 20
5.5710463737
 30
0.0
 11
6.1630097855
 21
5.5680796347
 31
0.0
  0
LINE
  5
2C5
330
1F
100
AcDbEntity
  8
0
  6
Continuous
 62
     7
370
    15
100
AcDbLine
 10
6.1630097855
 20
5.4401129063
 30
0.0
 11
6.1630097855
 21
5.4430796453
 31
0.0
  0
ARC
  5
2C6
330
1F
100
AcDbEntity
  8
0
  6
Continuous
 62
     7
370
    15
100
AcDbCircle
 10
6.1629798349
 20
5.5055796409
 30
0.0
 40
0.0654667263322572
100
AcDbArc
 50
89.9737954415
 51
270.0262045585
  0
CIRCLE
  5
2C7
330
1F
100
AcDbEntity
  8
0
  6
Continuous
 62
     7
370
    15
100
AcDbCircle
 10
3.9442597765
 20
5.5055796409
 30
0.0
 40
0.0158125000000009
  0
CIRCLE
  5
2C8
330
1F
100
AcDbEntity
  8
0
  6
Continuous
 62
     7
370
    15
100
AcDbCircle
 10
6.4442597765
 20
5.5055796409
 30
0.0
 40
0.0158125000000009
  0
CIRCLE
  5
2C9
330
1F
100
AcDbEntity
  8
0
  6
Continuous
 62
     7
370
    15
100
AcDbCircle
 10
2.4442597765
 20
5.5055796409
 30
0.0
 40
0.0158125
  0
CIRCLE
  5
2CA
330
1F
100
AcDbEntity
  8
0
  6
Continuous
 62
     7
370
    15
100
AcDbCircle
 10
7.9442597765
 20
5.5055796409
 30
0.0
 40
0.0158125
  0
LINE
  5
2CB
330
1F
100
AcDbEntity
  8
0
  6
Continuous
 62
     7
370
    15
100
AcDbLine
 10
7.6630096573
 20
5.4407989683
 30
0.0
 11
8.2255097193
 21
5.4410562187
 31
0.0
  0
LINE
  5
2CC
330
1F
100
AcDbEntity
  8
0
  6
Continuous
 62
     7
370
    15
100
AcDbLine
 10
2.7255098957
 20
5.4407989683
 30
0.0
 11
2.1630098338
 21
5.4410562187
 31
0.0
  0
LINE
  5
2CD
330
1F
100
AcDbEntity
  8
0
  6
Continuous
 62
     7
370
    15
100
AcDbLine
 10
4.2255097676
 20
5.4401129063
 30
0.0
 11
3.6630097057
 21
5.4403701933
 31
0.0
  0
LINE
  5
2CE
330
1F
100
AcDbEntity
  8
0
  6
Continuous
 62
     7
370
    15
100
AcDbLine
 10
6.1630097855
 20
5.4401129063
 30
0.0
 11
6.7255098474
 21
5.4403701933
 31
0.0
  0
LINE
  5
2CF
330
1F
100
AcDbEntity
  8
0
  6
Continuous
 62
     7
370
    15
100
AcDbLine
 10
1.4232677927
 20
5.2552426252
 30
0.0
 11
1.4680660218
 21
5.2552426252
 31
0.0
  0
LINE
  5
2D0
330
1F
100
AcDbEntity
  8
0
  6
Continuous
 62
     7
370
    15
100
AcDbLine
 10
1.4680660218
 20
5.2652365231
 30
0.0
 11
1.4680660218
 21
5.2552426252
 31
0.0
  0
ARC
  5
2D1
330
1F
100
AcDbEntity
  8
0
  6
Continuous
 62
     7
370
    15
100
AcDbCircle
 10
1.4680518009
 20
5.2652505972
 30
0.0
 40
0.0100079820552204
100
AcDbArc
 50
270.0814150323
 51
359.9194258153
  0
LINE
  5
2D2
330
1F
100
AcDbEntity
  8
0
  6
Continuous
 62
     7
370
    15
100
AcDbLine
 10
8.9652517604
 20
5.2552426252
 30
0.0
 11
8.9204535312
 21
5.2552426252
 31
0.0
  0
LINE
  5
2D3
330
1F
100
AcDbEntity
  8
0
  6
Continuous
 62
     7
370
    15
100
AcDbLine
 10
8.9204535312
 20
5.2652365231
 30
0.0
 11
8.9204535312
 21
5.2552426252
 31
0.0
  0
ARC
  5
2D4
330
1F
100
AcDbEntity
  8
0
  6
Continuous
 62
     7
370
    15
100
AcDbCircle
 10
8.9204677522
 20
5.2652505972
 30
0.0
 40
0.0100079820552204
100
AcDbArc
 50
180.0805741847
 51
269.9185849677
  0
LINE
  5
2D5
330
1F
100
AcDbEntity
  8
0
  6
Continuous
 62
     7
370
    15
100
AcDbLine
 10
8.91045978
 20
5.7459227202
 30
0.0
 11
8.9099910388
 21
5.7463913881
 31
0.0
  0
ELLIPSE
  5
2D6
330
1F
100
AcDbEntity
  8
0
  6
Continuous
 62
     7
370
    15
100
AcDbEllipse
 10
8.9200154129
 20
5.7463609381
 30
0.0
 11
0.007586214146066084
 21
-0.006580923691395847
 31
0.0
210
0.0
220
0.0
230
1.0
 40
0.995709939
 41
2.285658705733398
 42
3.855237057357217
  0
LINE
  5
2D7
330
1F
100
AcDbEntity
  8
0
  6
Continuous
 62
     7
370
    15
100
AcDbLine
 10
8.9199909499
 20
5.7563791994
 30
0.0
 11
8.9204535312
 21
5.7559166914
 31
0.0
  0
LINE
  5
2D8
330
1F
100
AcDbEntity
  8
0
  6
Continuous
 62
     7
370
    15
100
AcDbLine
 10
1.4685286032
 20
5.7563791994
 30
0.0
 11
1.4680660218
 21
5.7559166914
 31
0.0
  0
ELLIPSE
  5
2D9
330
1F
100
AcDbEntity
  8
0
  6
Continuous
 62
     7
370
    15
100
AcDbEllipse
 10
1.4685041402
 20
5.7463609381
 30
0.0
 11
0.007586214146065863
 21
0.006580923691394959
 31
0.0
210
0.0
220
0.0
230
1.0
 40
0.995709939
 41
5.569540903412268
 42
7.139119255035934
  0
LINE
  5
2DA
330
1F
100
AcDbEntity
  8
0
  6
Continuous
 62
     7
370
    15
100
AcDbLine
 10
1.4780597731
 20
5.7459227202
 30
0.0
 11
1.4785285143
 21
5.7463913881
 31
0.0
  0
LINE
  5
2DB
330
1F
100
AcDbEntity
  8
0
  6
Continuous
 62
     7
370
    15
100
AcDbLine
 10
1.4785285143
 20
5.2647678735
 30
0.0
 11
1.4780597731
 21
5.2652365231
 31
0.0
  0
ELLIPSE
  5
2DC
330
1F
100
AcDbEntity
  8
0
  6
Continuous
 62
     7
370
    15
100
AcDbEllipse
 10
1.4685041402
 20
5.2647983437
 30
0.0
 11
0.007586214146064306
 21
-0.006580923691397621
 31
0.0
210
0.0
220
0.0
230
1.0
 40
0.995709939
 41
5.427251359323539
 42
6.996829710947353
  0
LINE
  5
2DD
330
1F
100
AcDbEntity
  8
0
  6
Continuous
 62
     7
370
    15
100
AcDbLine
 10
1.4680660218
 20
5.2552426252
 30
0.0
 11
1.4685286032
 21
5.2547800622
 31
0.0
  0
LINE
  5
2DE
330
1F
100
AcDbEntity
  8
0
  6
Continuous
 62
     7
370
    15
100
AcDbLine
 10
8.9204535312
 20
5.2552426252
 30
0.0
 11
8.9199909499
 21
5.2547800622
 31
0.0
  0
ELLIPSE
  5
2DF
330
1F
100
AcDbEntity
  8
0
  6
Continuous
 62
     7
370
    15
100
AcDbEllipse
 10
8.9200154129
 20
5.2647983437
 30
0.0
 11
0.007586214146064306
 21
0.006580923691397621
 31
0.0
210
0.0
220
0.0
230
1.0
 40
0.995709939
 41
2.427948249822011
 42
3.997526601445986
  0
LINE
  5
2E0
330
1F
100
AcDbEntity
  8
0
  6
Continuous
 62
     7
370
    15
100
AcDbLine
 10
8.9099910388
 20
5.2647678735
 30
0.0
 11
8.91045978
 21
5.2652365231
 31
0.0
  0
ARC
  5
2E1
330
1F
100
AcDbEntity
  8
0
  6
Continuous
 62
     7
370
    15
100
AcDbCircle
 10
1.4244448912
 20
5.7663793275
 30
0.0
 40
0.0100136823749312
100
AcDbArc
 50
180.1124328632
 51
269.7031266221
  0
LINE
  5
2E2
330
1F
100
AcDbEntity
  8
0
  6
Continuous
 62
     7
370
    15
100
AcDbLine
 10
1.4232677927
 20
5.7559166914
 30
0.0
 11
1.4243930064
 21
5.7563657796
 31
0.0
  0
LINE
  5
2E3
330
1F
100
AcDbEntity
  8
0
  6
Continuous
 62
     7
370
    15
100
AcDbLine
 10
8.9652517604
 20
5.7559166914
 30
0.0
 11
8.9641265467
 21
5.7563657796
 31
0.0
  0
ARC
  5
2E4
330
1F
100
AcDbEntity
  8
0
  6
Continuous
 62
     7
370
    15
100
AcDbCircle
 10
8.9640746619
 20
5.7663793275
 30
0.0
 40
0.010013682374931
100
AcDbArc
 50
270.2968733779
 51
359.8875671368
  0
LINE
  5
2E5
330
1F
100
AcDbEntity
  8
0
  6
Continuous
 62
     7
370
    15
100
AcDbLine
 10
8.9641265467
 20
5.7563657796
 30
0.0
 11
8.9199909499
 21
5.7563791994
 31
0.0
  0
LINE
  5
2E6
330
1F
100
AcDbEntity
  8
0
  6
Continuous
 62
     7
370
    15
100
AcDbLine
 10
1.4243930064
 20
5.7563657796
 30
0.0
 11
1.4685286032
 21
5.7563791994
 31
0.0
  0
LINE
  5
2E7
330
1F
100
AcDbEntity
  8
0
  6
Continuous
 62
     7
370
    15
100
AcDbLine
 10
8.9099910388
 20
5.7463913881
 30
0.0
 11
8.9099910388
 21
5.2647678735
 31
0.0
  0
LINE
  5
2E8
330
1F
100
AcDbEntity
  8
0
  6
Continuous
 62
     7
370
    15
100
AcDbLine
 10
1.4785285143
 20
5.7463913881
 30
0.0
 11
1.4785285143
 21
5.2647678735
 31
0.0
  0
LINE
  5
2E9
330
1F
100
AcDbEntity
  8
0
  6
Continuous
 62
     7
370
    15
100
AcDbLine
 10
1.4243930064
 20
5.2547935004
 30
0.0
 11
1.4232677927
 21
5.2552426252
 31
0.0
  0
LINE
  5
2EA
330
1F
100
AcDbEntity
  8
0
  6
Continuous
 62
     7
370
    15
100
AcDbLine
 10
1.4685286032
 20
5.2547800622
 30
0.0
 11
1.4243930064
 21
5.2547935004
 31
0.0
  0
ARC
  5
2EB
330
1F
100
AcDbEntity
  8
0
  6
Continuous
 62
     7
370
    15
100
AcDbCircle
 10
1.4244448568
 20
5.2447799867
 30
0.0
 40
0.0100136479556097
100
AcDbArc
 50
90.2966778401
 51
179.8877626747
  0
ARC
  5
2EC
330
1F
100
AcDbEntity
  8
0
  6
Continuous
 62
     7
370
    15
100
AcDbCircle
 10
8.9640746962
 20
5.2447799867
 30
0.0
 40
0.0100136479556094
100
AcDbArc
 50
0.1122373253
 51
89.7033221599
  0
LINE
  5
2ED
330
1F
100
AcDbEntity
  8
0
  6
Continuous
 62
     7
370
    15
100
AcDbLine
 10
8.9641265467
 20
5.2547935004
 30
0.0
 11
8.9652517604
 21
5.2552426252
 31
0.0
  0
LINE
  5
2EE
330
1F
100
AcDbEntity
  8
0
  6
Continuous
 62
     7
370
    15
100
AcDbLine
 10
8.9199909499
 20
5.2547800622
 30
0.0
 11
8.9641265467
 21
5.2547935004
 31
0.0
  0
ARC
  5
2EF
330
1F
100
AcDbEntity
  8
0
  6
Continuous
 62
     7
370
    15
100
AcDbCircle
 10
1.7347339558
 20
5.7640684181
 30
0.0
 40
0.3104365241736143
100
AcDbArc
 50
179.5771094281
 51
181.4217849526
  0
LINE
  5
2F0
330
1F
100
AcDbEntity
  8
0
  6
Continuous
 62
     7
370
    15
100
AcDbLine
 10
1.4144312281
 20
5.7663596774
 30
0.0
 11
1.4243058874
 21
5.7663596774
 31
0.0
  0
ARC
  5
2F1
330
1F
100
AcDbEntity
  8
0
  6
Continuous
 62
     7
370
    15
100
AcDbCircle
 10
8.6096945993
 20
5.764090576
 30
0.0
 40
0.3103921560506113
100
AcDbArc
 50
358.576398312
 51
0.4213515517
  0
LINE
  5
2F2
330
1F
100
AcDbEntity
  8
0
  6
Continuous
 62
     7
370
    15
100
AcDbLine
 10
8.9200783622
 20
5.7663731706
 30
0.0
 11
8.9642136657
 21
5.7663596774
 31
0.0
  0
ARC
  5
2F3
330
1F
100
AcDbEntity
  8
0
  6
Continuous
 62
     7
370
    15
100
AcDbCircle
 10
8.6537855973
 20
5.7640684181
 30
0.0
 40
0.3104365241828089
100
AcDbArc
 50
358.5782150475
 51
0.4228905718
  0
LINE
  5
2F4
330
1F
100
AcDbEntity
  8
0
  6
Continuous
 62
     7
370
    15
100
AcDbLine
 10
1.4684411908
 20
5.7663731706
 30
0.0
 11
1.4243058874
 21
5.7663596774
 31
0.0
  0
ARC
  5
2F5
330
1F
100
AcDbEntity
  8
0
  6
Continuous
 62
     7
370
    15
100
AcDbCircle
 10
1.7788249538
 20
5.764090576
 30
0.0
 40
0.3103921560495279
100
AcDbArc
 50
179.5786484483
 51
181.4236016881
  0
LINE
  5
2F6
330
1F
100
AcDbEntity
  8
0
  6
Continuous
 62
     7
370
    15
100
AcDbLine
 10
8.974088325
 20
5.7663596774
 30
0.0
 11
8.9642136657
 21
5.7663596774
 31
0.0
  0
ARC
  5
2F7
330
1F
100
AcDbEntity
  8
0
  6
Continuous
 62
     7
370
    15
100
AcDbCircle
 10
8.60969827
 20
5.2470687303
 30
0.0
 40
0.3103884853326164
100
AcDbArc
 50
359.5786453724
 51
1.4236102793
  0
ARC
  5
2F8
330
1F
100
AcDbEntity
  8
0
  6
Continuous
 62
     7
370
    15
100
AcDbCircle
 10
8.6537857705
 20
5.2470908633
 30
0.0
 40
0.3104363509883486
100
AcDbArc
 50
359.5771089135
 51
1.4217854672
  0
LINE
  5
2F9
330
1F
100
AcDbEntity
  8
0
  6
Continuous
 62
     7
370
    15
100
AcDbLine
 10
8.9642136657
 20
5.2447996025
 30
0.0
 11
8.9200783622
 21
5.244786146
 31
0.0
  0
LINE
  5
2FA
330
1F
100
AcDbEntity
  8
0
  6
Continuous
 62
     7
370
    15
100
AcDbLine
 10
8.9642136657
 20
5.2447996025
 30
0.0
 11
8.974088325
 21
5.2447996025
 31
0.0
  0
ARC
  5
2FB
330
1F
100
AcDbEntity
  8
0
  6
Continuous
 62
     7
370
    15
100
AcDbCircle
 10
1.7347337826
 20
5.2470908633
 30
0.0
 40
0.3104363509792184
100
AcDbArc
 50
178.5782145328
 51
180.4228910865
  0
LINE
  5
2FC
330
1F
100
AcDbEntity
  8
0
  6
Continuous
 62
     7
370
    15
100
AcDbLine
 10
1.4243058874
 20
5.2447996025
 30
0.0
 11
1.4144312281
 21
5.2447996025
 31
0.0
  0
ARC
  5
2FD
330
1F
100
AcDbEntity
  8
0
  6
Continuous
 62
     7
370
    15
100
AcDbCircle
 10
1.778821283
 20
5.2470687303
 30
0.0
 40
0.3103884853315119
100
AcDbArc
 50
178.5763897206
 51
180.4213546276
  0
LINE
  5
2FE
330
1F
100
AcDbEntity
  8
0
  6
Continuous
 62
     7
370
    15
100
AcDbLine
 10
1.4243058874
 20
5.2447996025
 30
0.0
 11
1.4684411908
 21
5.244786146
 31
0.0
  0
LINE
  5
2FF
330
1F
100
AcDbEntity
  8
0
  6
Continuous
 62
     7
370
    15
100
AcDbLine
 10
8.9099910388
 20
5.7463913881
 30
0.0
 11
8.9000844065
 21
5.7463913881
 31
0.0
  0
ELLIPSE
  5
300
330
1F
100
AcDbEntity
  8
0
  6
Continuous
 62
     7
370
    15
100
AcDbEllipse
 10
8.9201026782
 20
5.7463609381
 30
0.0
 11
0.01548990279359863
 21
-0.01270020035876129
 31
0.0
210
0.0
220
0.0
230
1.0
 40
0.9984482666
 41
2.25801198385305
 42
3.827590335476773
  0
ELLIPSE
  5
301
330
1F
100
AcDbEntity
  8
0
  6
Continuous
 62
     7
370
    15
100
AcDbEllipse
 10
1.4684168748
 20
5.7463609381
 30
0.0
 11
0.01548990279359819
 21
0.01270020035876129
 31
0.0
210
0.0
220
0.0
230
1.0
 40
0.9984482666
 41
5.597187625292639
 42
7.166765976916266
  0
LINE
  5
302
330
1F
100
AcDbEntity
  8
0
  6
Continuous
 62
     7
370
    15
100
AcDbLine
 10
1.4785285143
 20
5.7463913881
 30
0.0
 11
1.4884351465
 21
5.7463913881
 31
0.0
  0
ELLIPSE
  5
303
330
1F
100
AcDbEntity
  8
0
  6
Continuous
 62
     7
370
    15
100
AcDbEllipse
 10
1.4684168748
 20
5.2647983437
 30
0.0
 11
0.01548990279359774
 21
-0.01270020035876129
 31
0.0
210
0.0
220
0.0
230
0.9999999999999998
 40
0.9984482666
 41
5.399604637442923
 42
6.969182989066645
  0
LINE
  5
304
330
1F
100
AcDbEntity
  8
0
  6
Continuous
 62
     7
370
    15
100
AcDbLine
 10
1.4785285143
 20
5.2647678735
 30
0.0
 11
1.4884351465
 21
5.2647678735
 31
0.0
  0
ELLIPSE
  5
305
330
1F
100
AcDbEntity
  8
0
  6
Continuous
 62
     7
370
    15
100
AcDbEllipse
 10
8.9201026782
 20
5.2647983437
 30
0.0
 11
0.01548990279359685
 21
0.01270020035876218
 31
0.0
210
0.0
220
0.0
230
1.0
 40
0.9984482666
 41
2.455594971702701
 42
4.02517332332645
  0
LINE
  5
306
330
1F
100
AcDbEntity
  8
0
  6
Continuous
 62
     7
370
    15
100
AcDbLine
 10
8.9099910388
 20
5.2647678735
 30
0.0
 11
8.9000844065
 21
5.2647678735
 31
0.0
  0
LINE
  5
307
330
1F
100
AcDbEntity
  8
0
  6
Continuous
 62
     7
370
    15
100
AcDbLine
 10
1.4243058874
 20
5.7663596774
 30
0.0
 11
1.4243058874
 21
5.8284509535
 31
0.0
  0
LINE
  5
308
330
1F
100
AcDbEntity
  8
0
  6
Continuous
 62
     7
370
    15
100
AcDbLine
 10
8.9642136657
 20
5.7663596774
 30
0.0
 11
8.9642136657
 21
5.8284509535
 31
0.0
  0
LINE
  5
309
330
1F
100
AcDbEntity
  8
0
  6
Continuous
 62
     7
370
    15
100
AcDbLine
 10
1.4243058874
 20
5.1827083082
 30
0.0
 11
1.4243058874
 21
5.2447996025
 31
0.0
  0
LINE
  5
30A
330
1F
100
AcDbEntity
  8
0
  6
Continuous
 62
     7
370
    15
100
AcDbLine
 10
8.9642136657
 20
5.1827083082
 30
0.0
 11
8.9642136657
 21
5.2447996025
 31
0.0
  0
LINE
  5
30B
330
1F
100
AcDbEntity
  8
0
  6
Continuous
 62
     7
370
    15
100
AcDbLine
 10
1.4884351465
 20
5.2647678735
 30
0.0
 11
1.4884351465
 21
5.7463913881
 31
0.0
  0
LINE
  5
30C
330
1F
100
AcDbEntity
  8
0
  6
Continuous
 62
     7
370
    15
100
AcDbLine
 10
8.9000844065
 20
5.2647678735
 30
0.0
 11
8.9000844065
 21
5.7463913881
 31
0.0
  0
LINE
  5
30D
330
1F
100
AcDbEntity
  8
0
  6
Continuous
 62
     7
370
    15
100
AcDbLine
 10
5.3817597789
 20
5.8294839149
 30
0.0
 11
5.3817597789
 21
5.7712046081
 31
0.0
  0
LINE
  5
30E
330
1F
100
AcDbEntity
  8
0
  6
Continuous
 62
     7
370
    15
100
AcDbLine
 10
5.7567597652
 20
5.7712046081
 30
0.0
 11
5.7567597652
 21
5.8294839149
 31
0.0
  0
LINE
  5
30F
330
1F
100
AcDbEntity
  8
0
  6
Continuous
 62
     7
370
    15
100
AcDbLine
 10
5.3817597789
 20
5.7712046081
 30
0.0
 11
5.7567597652
 21
5.7712046081
 31
0.0
  0
LINE
  5
310
330
1F
100
AcDbEntity
  8
0
  6
Continuous
 62
     7
370
    15
100
AcDbLine
 10
3.8817597786
 20
5.7712046081
 30
0.0
 11
3.8817597786
 21
5.8294839149
 31
0.0
  0
LINE
  5
311
330
1F
100
AcDbEntity
  8
0
  6
Continuous
 62
     7
370
    15
100
AcDbLine
 10
4.2567597466
 20
5.8294839149
 30
0.0
 11
4.2567597466
 21
5.7712046081
 31
0.0
  0
LINE
  5
312
330
1F
100
AcDbEntity
  8
0
  6
Continuous
 62
     7
370
    15
100
AcDbLine
 10
4.2567597466
 20
5.7712046081
 30
0.0
 11
3.8817597786
 21
5.7712046081
 31
0.0
  0
LINE
  5
313
330
1F
100
AcDbEntity
  8
0
  6
Continuous
 62
     7
370
    15
100
AcDbLine
 10
6.5067597744
 20
5.7712046081
 30
0.0
 11
6.5067597744
 21
5.8294839149
 31
0.0
  0
LINE
  5
314
330
1F
100
AcDbEntity
  8
0
  6
Continuous
 62
     7
370
    15
100
AcDbLine
 10
6.5083238097
 20
5.7696405729
 30
0.0
 11
6.5083238097
 21
5.8258194172
 31
0.0
  0
LINE
  5
315
330
1F
100
AcDbEntity
  8
0
  6
Continuous
 62
     7
370
    15
100
AcDbLine
 10
6.5083238097
 20
5.7696405729
 30
0.0
 11
6.5067597744
 21
5.7712046081
 31
0.0
  0
LINE
  5
316
330
1F
100
AcDbEntity
  8
0
  6
Continuous
 62
     7
370
    15
100
AcDbLine
 10
3.8801957434
 20
5.7696405729
 30
0.0
 11
3.8801957434
 21
5.8258194172
 31
0.0
  0
LINE
  5
317
330
1F
100
AcDbEntity
  8
0
  6
Continuous
 62
     7
370
    15
100
AcDbLine
 10
3.8801957434
 20
5.7696405729
 30
0.0
 11
3.8817597786
 21
5.7712046081
 31
0.0
  0
LINE
  5
318
330
1F
100
AcDbEntity
  8
0
  6
Continuous
 62
     7
370
    15
100
AcDbLine
 10
5.3796794829
 20
5.7691243122
 30
0.0
 11
5.3817597789
 21
5.7712046081
 31
0.0
  0
LINE
  5
319
330
1F
100
AcDbEntity
  8
0
  6
Continuous
 62
     7
370
    15
100
AcDbLine
 10
5.3796794829
 20
5.8246100912
 30
0.0
 11
5.3796794829
 21
5.7691243122
 31
0.0
  0
LINE
  5
31A
330
1F
100
AcDbEntity
  8
0
  6
Continuous
 62
     7
370
    15
100
AcDbLine
 10
8.006759793
 20
5.7712046081
 30
0.0
 11
8.006759793
 21
5.8294839149
 31
0.0
  0
LINE
  5
31B
330
1F
100
AcDbEntity
  8
0
  6
Continuous
 62
     7
370
    15
100
AcDbLine
 10
8.0076380228
 20
5.7608365679
 30
0.0
 11
8.0076380228
 21
5.8274259853
 31
0.0
  0
ELLIPSE
  5
31C
330
1F
100
AcDbEntity
  8
0
  6
Continuous
 62
     7
370
    15
100
AcDbEllipse
 10
8.0071143017
 20
5.7608363923
 30
0.0
 11
1.048909048506630E-8
 21
0.01000000104778564
 31
0.0
210
0.0
220
0.0
230
1.0
 40
0.0523858104
 41
4.712409003153939
 42
6.230847447918499
  0
LINE
  5
31D
330
1F
100
AcDbEntity
  8
0
  6
Continuous
 62
     7
370
    15
100
AcDbLine
 10
8.0071417086
 20
5.7708226925
 30
0.0
 11
8.006759793
 21
5.7712046081
 31
0.0
  0
LINE
  5
31E
330
1F
100
AcDbEntity
  8
0
  6
Continuous
 62
     7
370
    15
100
AcDbLine
 10
4.2584969199
 20
5.8254141086
 30
0.0
 11
4.2584969199
 21
5.7694675082
 31
0.0
  0
LINE
  5
31F
330
1F
100
AcDbEntity
  8
0
  6
Continuous
 62
     7
370
    15
100
AcDbLine
 10
4.2584969199
 20
5.7694675082
 30
0.0
 11
4.2567597466
 21
5.7712046081
 31
0.0
  0
ELLIPSE
  5
320
330
1F
100
AcDbEntity
  8
0
  6
Continuous
 62
     7
370
    15
100
AcDbEllipse
 10
2.3814052514
 20
5.7608363923
 30
0.0
 11
-1.048909092915551E-8
 21
0.01000000104778564
 31
0.0
210
0.0
220
0.0
230
1.0
 40
0.0523858104
 41
0.0523378592621551
 42
1.570776304025645
  0
LINE
  5
321
330
1F
100
AcDbEntity
  8
0
  6
Continuous
 62
     7
370
    15
100
AcDbLine
 10
2.3808815303
 20
5.7608365679
 30
0.0
 11
2.3808815303
 21
5.8274259853
 31
0.0
  0
LINE
  5
322
330
1F
100
AcDbEntity
  8
0
  6
Continuous
 62
     7
370
    15
100
AcDbLine
 10
2.3817597601
 20
5.7712046081
 30
0.0
 11
2.3817597601
 21
5.8294839149
 31
0.0
  0
LINE
  5
323
330
1F
100
AcDbEntity
  8
0
  6
Continuous
 62
     7
370
    15
100
AcDbLine
 10
2.3813778445
 20
5.7708226925
 30
0.0
 11
2.3817597601
 21
5.7712046081
 31
0.0
  0
LINE
  5
324
330
1F
100
AcDbEntity
  8
0
  6
Continuous
 62
     7
370
    15
100
AcDbLine
 10
7.6317597517
 20
5.8294839149
 30
0.0
 11
7.6317597517
 21
5.7712046081
 31
0.0
  0
LINE
  5
325
330
1F
100
AcDbEntity
  8
0
  6
Continuous
 62
     7
370
    15
100
AcDbLine
 10
7.6312059447
 20
5.7706507279
 30
0.0
 11
7.6317597517
 21
5.7712046081
 31
0.0
  0
ELLIPSE
  5
326
330
1F
100
AcDbEntity
  8
0
  6
Continuous
 62
     7
370
    15
100
AcDbEllipse
 10
7.6312333401
 20
5.7606644809
 30
0.0
 11
1.470720967233774E-8
 21
0.01000000104970411
 31
0.0
210
0.0
220
0.0
230
1.0
 40
0.0524337502
 41
0.0523859311573472
 42
1.570824375918835
  0
LINE
  5
327
330
1F
100
AcDbEntity
  8
0
  6
Continuous
 62
     7
370
    15
100
AcDbLine
 10
7.6307090438
 20
5.82702207
 30
0.0
 11
7.6307090438
 21
5.7606642366
 31
0.0
  0
LINE
  5
328
330
1F
100
AcDbEntity
  8
0
  6
Continuous
 62
     7
370
    15
100
AcDbLine
 10
6.8817598157
 20
5.8294839149
 30
0.0
 11
6.8817598157
 21
5.7712046081
 31
0.0
  0
LINE
  5
329
330
1F
100
AcDbEntity
  8
0
  6
Continuous
 62
     7
370
    15
100
AcDbLine
 10
6.8808626661
 20
5.7703076052
 30
0.0
 11
6.8817598157
 21
5.7712046081
 31
0.0
  0
ELLIPSE
  5
32A
330
1F
100
AcDbEntity
  8
0
  6
Continuous
 62
     7
370
    15
100
AcDbEllipse
 10
6.8808901663
 20
5.7603213072
 30
0.0
 11
1.470720789598090E-8
 21
0.01000000104970411
 31
0.0
210
0.0
220
0.0
230
1.0
 40
0.0524337502
 41
0.0523859311557488
 42
1.570824375918825
  0
LINE
  5
32B
330
1F
100
AcDbEntity
  8
0
  6
Continuous
 62
     7
370
    15
100
AcDbLine
 10
6.8803657652
 20
5.8262180526
 30
0.0
 11
6.8803657652
 21
5.7603210405
 31
0.0
  0
LINE
  5
32C
330
1F
100
AcDbEntity
  8
0
  6
Continuous
 62
     7
370
    15
100
AcDbLine
 10
4.6317597879
 20
5.7712046081
 30
0.0
 11
4.6317597879
 21
5.8294839149
 31
0.0
  0
LINE
  5
32D
330
1F
100
AcDbEntity
  8
0
  6
Continuous
 62
     7
370
    15
100
AcDbLine
 10
5.0067597742
 20
5.8294839149
 30
0.0
 11
5.0067597742
 21
5.7712046081
 31
0.0
  0
LINE
  5
32E
330
1F
100
AcDbEntity
  8
0
  6
Continuous
 62
     7
370
    15
100
AcDbLine
 10
5.0067597742
 20
5.7712046081
 30
0.0
 11
4.6317597879
 21
5.7712046081
 31
0.0
  0
LINE
  5
32F
330
1F
100
AcDbEntity
  8
0
  6
Continuous
 62
     7
370
    15
100
AcDbLine
 10
8.3817598343
 20
5.8294839149
 30
0.0
 11
8.3817598343
 21
5.7712046081
 31
0.0
  0
LINE
  5
330
330
1F
100
AcDbEntity
  8
0
  6
Continuous
 62
     7
370
    15
100
AcDbLine
 10
8.7567598756
 20
5.7712046081
 30
0.0
 11
8.7567598756
 21
5.8294839149
 31
0.0
  0
LINE
  5
331
330
1F
100
AcDbEntity
  8
0
  6
Continuous
 62
     7
370
    15
100
AcDbLine
 10
8.3817598343
 20
5.7712046081
 30
0.0
 11
8.7567598756
 21
5.7712046081
 31
0.0
  0
LINE
  5
332
330
1F
100
AcDbEntity
  8
0
  6
Continuous
 62
     7
370
    15
100
AcDbLine
 10
2.0074672306
 20
5.8278260874
 30
0.0
 11
2.0074672306
 21
5.7610073593
 31
0.0
  0
ELLIPSE
  5
333
330
1F
100
AcDbEntity
  8
0
  6
Continuous
 62
     7
370
    15
100
AcDbEllipse
 10
2.0069430392
 20
5.7610076547
 30
0.0
 11
-1.470720922824853E-8
 21
0.01000000104970411
 31
0.0
210
0.0
220
0.0
230
1.0
 40
0.0524337502
 41
4.712360931260666
 42
6.23079937602335
  0
LINE
  5
334
330
1F
100
AcDbEntity
  8
0
  6
Continuous
 62
     7
370
    15
100
AcDbLine
 10
2.006970623
 20
5.7709939239
 30
0.0
 11
2.0067597188
 21
5.7712046081
 31
0.0
  0
LINE
  5
335
330
1F
100
AcDbEntity
  8
0
  6
Continuous
 62
     7
370
    15
100
AcDbLine
 10
2.0067597188
 20
5.8294839149
 30
0.0
 11
2.0067597188
 21
5.7712046081
 31
0.0
  0
LINE
  5
336
330
1F
100
AcDbEntity
  8
0
  6
Continuous
 62
     7
370
    15
100
AcDbLine
 10
5.0088400702
 20
5.8246100912
 30
0.0
 11
5.0088400702
 21
5.7691243122
 31
0.0
  0
LINE
  5
337
330
1F
100
AcDbEntity
  8
0
  6
Continuous
 62
     7
370
    15
100
AcDbLine
 10
5.0088400702
 20
5.7691243122
 30
0.0
 11
5.0067597742
 21
5.7712046081
 31
0.0
  0
ELLIPSE
  5
338
330
1F
100
AcDbEntity
  8
0
  6
Continuous
 62
     7
370
    15
100
AcDbEllipse
 10
3.1310623914
 20
5.7604935322
 30
0.0
 11
-1.048909092915551E-8
 21
0.01000000104778476
 31
0.0
210
0.0
220
0.0
230
1.0
 40
0.0523858104
 41
0.0523378592630367
 42
1.570776304025645
  0
LINE
  5
339
330
1F
100
AcDbEntity
  8
0
  6
Continuous
 62
     7
370
    15
100
AcDbLine
 10
3.1305385635
 20
5.7604937385
 30
0.0
 11
3.1305385635
 21
5.8266227013
 31
0.0
  0
LINE
  5
33A
330
1F
100
AcDbEntity
  8
0
  6
Continuous
 62
     7
370
    15
100
AcDbLine
 10
3.1317598427
 20
5.7712046081
 30
0.0
 11
3.1317598427
 21
5.8294839149
 31
0.0
  0
LINE
  5
33B
330
1F
100
AcDbEntity
  8
0
  6
Continuous
 62
     7
370
    15
100
AcDbLine
 10
3.1310350244
 20
5.7704798632
 30
0.0
 11
3.1317598427
 21
5.7712046081
 31
0.0
  0
LINE
  5
33C
330
1F
100
AcDbEntity
  8
0
  6
Continuous
 62
     7
370
    15
100
AcDbLine
 10
7.2567597104
 20
5.7712046081
 30
0.0
 11
7.2567597104
 21
5.8294839149
 31
0.0
  0
LINE
  5
33D
330
1F
100
AcDbEntity
  8
0
  6
Continuous
 62
     7
370
    15
100
AcDbLine
 10
6.8817598157
 20
5.7712046081
 30
0.0
 11
7.2567597104
 21
5.7712046081
 31
0.0
  0
LINE
  5
33E
330
1F
100
AcDbEntity
  8
0
  6
Continuous
 62
     7
370
    15
100
AcDbLine
 10
1.6317596775
 20
5.7712046081
 30
0.0
 11
1.6317596775
 21
5.8294839149
 31
0.0
  0
LINE
  5
33F
330
1F
100
AcDbEntity
  8
0
  6
Continuous
 62
     7
370
    15
100
AcDbLine
 10
2.0067597188
 20
5.7712046081
 30
0.0
 11
1.6317596775
 21
5.7712046081
 31
0.0
  0
ELLIPSE
  5
340
330
1F
100
AcDbEntity
  8
0
  6
Continuous
 62
     7
370
    15
100
AcDbEllipse
 10
1.6317481114
 20
5.7611792523
 30
0.0
 11
-1.048909092915551E-8
 21
0.01000000104778564
 31
0.0
210
0.0
220
0.0
230
1.0
 40
0.0523858104
 41
0.0523378592633935
 42
1.570776304025557
  0
LINE
  5
341
330
1F
100
AcDbEntity
  8
0
  6
Continuous
 62
     7
370
    15
100
AcDbLine
 10
1.6312243504
 20
5.7611794706
 30
0.0
 11
1.6312243504
 21
5.8282292694
 31
0.0
  0
LINE
  5
342
330
1F
100
AcDbEntity
  8
0
  6
Continuous
 62
     7
370
    15
100
AcDbLine
 10
1.6317206646
 20
5.7711655953
 30
0.0
 11
1.6317596775
 21
5.7712046081
 31
0.0
  0
LINE
  5
343
330
1F
100
AcDbEntity
  8
0
  6
Continuous
 62
     7
370
    15
100
AcDbLine
 10
8.38154893
 20
5.7709939239
 30
0.0
 11
8.3817598343
 21
5.7712046081
 31
0.0
  0
ELLIPSE
  5
344
330
1F
100
AcDbEntity
  8
0
  6
Continuous
 62
     7
370
    15
100
AcDbEllipse
 10
8.3815765138
 20
5.7610076547
 30
0.0
 11
1.470720967233774E-8
 21
0.01000000104970411
 31
0.0
210
0.0
220
0.0
230
1.0
 40
0.0524337502
 41
0.0523859311556556
 42
1.570824375918923
  0
LINE
  5
345
330
1F
100
AcDbEntity
  8
0
  6
Continuous
 62
     7
370
    15
100
AcDbLine
 10
8.3810523224
 20
5.8278260874
 30
0.0
 11
8.3810523224
 21
5.7610073593
 31
0.0
  0
LINE
  5
346
330
1F
100
AcDbEntity
  8
0
  6
Continuous
 62
     7
370
    15
100
AcDbLine
 10
7.2579809896
 20
5.7604937385
 30
0.0
 11
7.2579809896
 21
5.8266227013
 31
0.0
  0
ELLIPSE
  5
347
330
1F
100
AcDbEntity
  8
0
  6
Continuous
 62
     7
370
    15
100
AcDbEllipse
 10
7.2574571617
 20
5.7604935322
 30
0.0
 11
1.048909226142314E-8
 21
0.01000000104778476
 31
0.0
210
0.0
220
0.0
230
1.0
 40
0.0523858104
 41
4.712409003153948
 42
6.230847447916902
  0
LINE
  5
348
330
1F
100
AcDbEntity
  8
0
  6
Continuous
 62
     7
370
    15
100
AcDbLine
 10
7.2574845287
 20
5.7704798632
 30
0.0
 11
7.2567597104
 21
5.7712046081
 31
0.0
  0
LINE
  5
349
330
1F
100
AcDbEntity
  8
0
  6
Continuous
 62
     7
370
    15
100
AcDbLine
 10
3.5067597373
 20
5.8294839149
 30
0.0
 11
3.5067597373
 21
5.7712046081
 31
0.0
  0
LINE
  5
34A
330
1F
100
AcDbEntity
  8
0
  6
Continuous
 62
     7
370
    15
100
AcDbLine
 10
3.5067597373
 20
5.7712046081
 30
0.0
 11
3.1317598427
 21
5.7712046081
 31
0.0
  0
LINE
  5
34B
330
1F
100
AcDbEntity
  8
0
  6
Continuous
 62
     7
370
    15
100
AcDbLine
 10
2.7578105093
 20
5.82702207
 30
0.0
 11
2.7578105093
 21
5.7606642366
 31
0.0
  0
ELLIPSE
  5
34C
330
1F
100
AcDbEntity
  8
0
  6
Continuous
 62
     7
370
    15
100
AcDbEllipse
 10
2.757286213
 20
5.7606644809
 30
0.0
 11
-1.470720878415932E-8
 21
0.01000000104970411
 31
0.0
210
0.0
220
0.0
230
1.0
 40
0.0524337502
 41
4.712360931260757
 42
6.230799376024195
  0
LINE
  5
34D
330
1F
100
AcDbEntity
  8
0
  6
Continuous
 62
     7
370
    15
100
AcDbLine
 10
2.7573136083
 20
5.7706507279
 30
0.0
 11
2.7567598014
 21
5.7712046081
 31
0.0
  0
LINE
  5
34E
330
1F
100
AcDbEntity
  8
0
  6
Continuous
 62
     7
370
    15
100
AcDbLine
 10
2.7567598014
 20
5.8294839149
 30
0.0
 11
2.7567598014
 21
5.7712046081
 31
0.0
  0
LINE
  5
34F
330
1F
100
AcDbEntity
  8
0
  6
Continuous
 62
     7
370
    15
100
AcDbLine
 10
5.7586667398
 20
5.7692976702
 30
0.0
 11
5.7586667398
 21
5.8250161332
 31
0.0
  0
LINE
  5
350
330
1F
100
AcDbEntity
  8
0
  6
Continuous
 62
     7
370
    15
100
AcDbLine
 10
5.7586667398
 20
5.7692976702
 30
0.0
 11
5.7567597652
 21
5.7712046081
 31
0.0
  0
LINE
  5
351
330
1F
100
AcDbEntity
  8
0
  6
Continuous
 62
     7
370
    15
100
AcDbLine
 10
8.7572952027
 20
5.7611794706
 30
0.0
 11
8.7572952027
 21
5.8282292694
 31
0.0
  0
ELLIPSE
  5
352
330
1F
100
AcDbEntity
  8
0
  6
Continuous
 62
     7
370
    15
100
AcDbEllipse
 10
8.7567714417
 20
5.7611792523
 30
0.0
 11
1.048909226142314E-8
 21
0.01000000104778564
 31
0.0
210
0.0
220
0.0
230
1.0
 40
0.0523858104
 41
4.712409003154037
 42
6.230847447918676
  0
LINE
  5
353
330
1F
100
AcDbEntity
  8
0
  6
Continuous
 62
     7
370
    15
100
AcDbLine
 10
8.7567988884
 20
5.7711655953
 30
0.0
 11
8.7567598756
 21
5.7712046081
 31
0.0
  0
LINE
  5
354
330
1F
100
AcDbEntity
  8
0
  6
Continuous
 62
     7
370
    15
100
AcDbLine
 10
6.1317598065
 20
5.8294839149
 30
0.0
 11
6.1317598065
 21
5.7712046081
 31
0.0
  0
LINE
  5
355
330
1F
100
AcDbEntity
  8
0
  6
Continuous
 62
     7
370
    15
100
AcDbLine
 10
6.1317598065
 20
5.7712046081
 30
0.0
 11
6.5067597744
 21
5.7712046081
 31
0.0
  0
LINE
  5
356
330
1F
100
AcDbEntity
  8
0
  6
Continuous
 62
     7
370
    15
100
AcDbLine
 10
7.6317597517
 20
5.7712046081
 30
0.0
 11
8.006759793
 21
5.7712046081
 31
0.0
  0
LINE
  5
357
330
1F
100
AcDbEntity
  8
0
  6
Continuous
 62
     7
370
    15
100
AcDbLine
 10
2.7567598014
 20
5.7712046081
 30
0.0
 11
2.3817597601
 21
5.7712046081
 31
0.0
  0
LINE
  5
358
330
1F
100
AcDbEntity
  8
0
  6
Continuous
 62
     7
370
    15
100
AcDbLine
 10
4.6298528133
 20
5.7692976702
 30
0.0
 11
4.6298528133
 21
5.8250161332
 31
0.0
  0
LINE
  5
359
330
1F
100
AcDbEntity
  8
0
  6
Continuous
 62
     7
370
    15
100
AcDbLine
 10
4.6298528133
 20
5.7692976702
 30
0.0
 11
4.6317597879
 21
5.7712046081
 31
0.0
  0
LINE
  5
35A
330
1F
100
AcDbEntity
  8
0
  6
Continuous
 62
     7
370
    15
100
AcDbLine
 10
3.5081537879
 20
5.8262180526
 30
0.0
 11
3.5081537879
 21
5.7603210405
 31
0.0
  0
ELLIPSE
  5
35B
330
1F
100
AcDbEntity
  8
0
  6
Continuous
 62
     7
370
    15
100
AcDbEllipse
 10
3.5076293868
 20
5.7603213072
 30
0.0
 11
-1.470720922824853E-8
 21
0.01000000104970411
 31
0.0
210
0.0
220
0.0
230
1.0
 40
0.0524337502
 41
4.712360931260755
 42
6.230799376024195
  0
LINE
  5
35C
330
1F
100
AcDbEntity
  8
0
  6
Continuous
 62
     7
370
    15
100
AcDbLine
 10
3.507656887
 20
5.7703076052
 30
0.0
 11
3.5067597373
 21
5.7712046081
 31
0.0
  0
LINE
  5
35D
330
1F
100
AcDbEntity
  8
0
  6
Continuous
 62
     7
370
    15
100
AcDbLine
 10
6.1300226332
 20
5.7694675082
 30
0.0
 11
6.1317598065
 21
5.7712046081
 31
0.0
  0
LINE
  5
35E
330
1F
100
AcDbEntity
  8
0
  6
Continuous
 62
     7
370
    15
100
AcDbLine
 10
6.1300226332
 20
5.8254141086
 30
0.0
 11
6.1300226332
 21
5.7694675082
 31
0.0
  0
LINE
  5
35F
330
1F
100
AcDbEntity
  8
0
  6
Continuous
 62
     7
370
    15
100
AcDbLine
 10
5.3796794829
 20
5.7691243122
 30
0.0
 11
5.7586667398
 21
5.7692976702
 31
0.0
  0
LINE
  5
360
330
1F
100
AcDbEntity
  8
0
  6
Continuous
 62
     7
370
    15
100
AcDbLine
 10
7.6312059447
 20
5.7706507279
 30
0.0
 11
8.0071417086
 21
5.7708226925
 31
0.0
  0
LINE
  5
361
330
1F
100
AcDbEntity
  8
0
  6
Continuous
 62
     7
370
    15
100
AcDbLine
 10
2.7573136083
 20
5.7706507279
 30
0.0
 11
2.3813778445
 21
5.7708226925
 31
0.0
  0
LINE
  5
362
330
1F
100
AcDbEntity
  8
0
  6
Continuous
 62
     7
370
    15
100
AcDbLine
 10
6.8808626661
 20
5.7703076052
 30
0.0
 11
7.2574845287
 21
5.7704798632
 31
0.0
  0
LINE
  5
363
330
1F
100
AcDbEntity
  8
0
  6
Continuous
 62
     7
370
    15
100
AcDbLine
 10
3.507656887
 20
5.7703076052
 30
0.0
 11
3.1310350244
 21
5.7704798632
 31
0.0
  0
LINE
  5
364
330
1F
100
AcDbEntity
  8
0
  6
Continuous
 62
     7
370
    15
100
AcDbLine
 10
4.2584969199
 20
5.7694675082
 30
0.0
 11
3.8801957434
 21
5.7696405729
 31
0.0
  0
LINE
  5
365
330
1F
100
AcDbEntity
  8
0
  6
Continuous
 62
     7
370
    15
100
AcDbLine
 10
5.0088400702
 20
5.7691243122
 30
0.0
 11
4.6298528133
 21
5.7692976702
 31
0.0
  0
LINE
  5
366
330
1F
100
AcDbEntity
  8
0
  6
Continuous
 62
     7
370
    15
100
AcDbLine
 10
6.1300226332
 20
5.7694675082
 30
0.0
 11
6.5083238097
 21
5.7696405729
 31
0.0
  0
LINE
  5
367
330
1F
100
AcDbEntity
  8
0
  6
Continuous
 62
     7
370
    15
100
AcDbLine
 10
8.38154893
 20
5.7709939239
 30
0.0
 11
8.7567988884
 21
5.7711655953
 31
0.0
  0
LINE
  5
368
330
1F
100
AcDbEntity
  8
0
  6
Continuous
 62
     7
370
    15
100
AcDbLine
 10
2.006970623
 20
5.7709939239
 30
0.0
 11
1.6317206646
 21
5.7711655953
 31
0.0
  0
LINE
  5
369
330
1F
100
AcDbEntity
  8
0
  6
Continuous
 62
     7
370
    15
100
AcDbLine
 10
8.7567598756
 20
5.1816753651
 30
0.0
 11
8.7567598756
 21
5.2399546352
 31
0.0
  0
LINE
  5
36A
330
1F
100
AcDbEntity
  8
0
  6
Continuous
 62
     7
370
    15
100
AcDbLine
 10
8.7567988884
 20
5.2399937214
 30
0.0
 11
8.7567598756
 21
5.2399546352
 31
0.0
  0
ELLIPSE
  5
36B
330
1F
100
AcDbEntity
  8
0
  6
Continuous
 62
     7
370
    15
100
AcDbEllipse
 10
8.7567714417
 20
5.2499800295
 30
0.0
 11
-1.048909048506630E-8
 21
0.01000000104778564
 31
0.0
210
0.0
220
0.0
230
1.0
 40
0.0523858104
 41
3.193930512854619
 42
4.712368957615442
  0
LINE
  5
36C
330
1F
100
AcDbEntity
  8
0
  6
Continuous
 62
     7
370
    15
100
AcDbLine
 10
8.7572952027
 20
5.1829300289
 30
0.0
 11
8.7572952027
 21
5.2499798277
 31
0.0
  0
LINE
  5
36D
330
1F
100
AcDbEntity
  8
0
  6
Continuous
 62
     7
370
    15
100
AcDbLine
 10
7.2567597104
 20
5.1816753651
 30
0.0
 11
7.2567597104
 21
5.2399546352
 31
0.0
  0
LINE
  5
36E
330
1F
100
AcDbEntity
  8
0
  6
Continuous
 62
     7
370
    15
100
AcDbLine
 10
7.2574845287
 20
5.2406794351
 30
0.0
 11
7.2567597104
 21
5.2399546352
 31
0.0
  0
ELLIPSE
  5
36F
330
1F
100
AcDbEntity
  8
0
  6
Continuous
 62
     7
370
    15
100
AcDbEllipse
 10
7.2574571617
 20
5.2506657495
 30
0.0
 11
-1.048908959688788E-8
 21
0.01000000104778564
 31
0.0
210
0.0
220
0.0
230
1.0
 40
0.0523858104
 41
3.193930512858089
 42
4.712368957615446
  0
LINE
  5
370
330
1F
100
AcDbEntity
  8
0
  6
Continuous
 62
     7
370
    15
100
AcDbLine
 10
7.2579809896
 20
5.1845365787
 30
0.0
 11
7.2579809896
 21
5.2506655414
 31
0.0
  0
ELLIPSE
  5
371
330
1F
100
AcDbEntity
  8
0
  6
Continuous
 62
     7
370
    15
100
AcDbEllipse
 10
2.0069430392
 20
5.250151627
 30
0.0
 11
1.470720878415932E-8
 21
0.01000000104970411
 31
0.0
210
0.0
220
0.0
230
1.0
 40
0.0524337502
 41
3.193978584746571
 42
4.712417029508801
  0
LINE
  5
372
330
1F
100
AcDbEntity
  8
0
  6
Continuous
 62
     7
370
    15
100
AcDbLine
 10
2.0074672306
 20
5.2501519024
 30
0.0
 11
2.0074672306
 21
5.1833331743
 31
0.0
  0
LINE
  5
373
330
1F
100
AcDbEntity
  8
0
  6
Continuous
 62
     7
370
    15
100
AcDbLine
 10
2.0067597188
 20
5.2399546352
 30
0.0
 11
2.0067597188
 21
5.1816753651
 31
0.0
  0
LINE
  5
374
330
1F
100
AcDbEntity
  8
0
  6
Continuous
 62
     7
370
    15
100
AcDbLine
 10
2.006970623
 20
5.2401653377
 30
0.0
 11
2.0067597188
 21
5.2399546352
 31
0.0
  0
LINE
  5
375
330
1F
100
AcDbEntity
  8
0
  6
Continuous
 62
     7
370
    15
100
AcDbLine
 10
1.6312243504
 20
5.1829300289
 30
0.0
 11
1.6312243504
 21
5.2499798277
 31
0.0
  0
ELLIPSE
  5
376
330
1F
100
AcDbEntity
  8
0
  6
Continuous
 62
     7
370
    15
100
AcDbEllipse
 10
1.6317481114
 20
5.2499800295
 30
0.0
 11
1.048909115120012E-8
 21
0.01000000104778564
 31
0.0
210
0.0
220
0.0
230
1.0
 40
0.0523858104
 41
1.570816349564149
 42
3.089254794326822
  0
LINE
  5
377
330
1F
100
AcDbEntity
  8
0
  6
Continuous
 62
     7
370
    15
100
AcDbLine
 10
1.6317206646
 20
5.2399937214
 30
0.0
 11
1.6317596775
 21
5.2399546352
 31
0.0
  0
LINE
  5
378
330
1F
100
AcDbEntity
  8
0
  6
Continuous
 62
     7
370
    15
100
AcDbLine
 10
1.6317596775
 20
5.1816753651
 30
0.0
 11
1.6317596775
 21
5.2399546352
 31
0.0
  0
LINE
  5
379
330
1F
100
AcDbEntity
  8
0
  6
Continuous
 62
     7
370
    15
100
AcDbLine
 10
8.3817598343
 20
5.2399546352
 30
0.0
 11
8.3817598343
 21
5.1816753651
 31
0.0
  0
LINE
  5
37A
330
1F
100
AcDbEntity
  8
0
  6
Continuous
 62
     7
370
    15
100
AcDbLine
 10
8.3810523224
 20
5.2501519024
 30
0.0
 11
8.3810523224
 21
5.1833331743
 31
0.0
  0
ELLIPSE
  5
37B
330
1F
100
AcDbEntity
  8
0
  6
Continuous
 62
     7
370
    15
100
AcDbEllipse
 10
8.3815765138
 20
5.250151627
 30
0.0
 11
-1.470720789598090E-8
 21
0.01000000104970411
 31
0.0
210
0.0
220
0.0
230
1.0
 40
0.0524337502
 41
1.57076827767079
 42
3.089206722437682
  0
LINE
  5
37C
330
1F
100
AcDbEntity
  8
0
  6
Continuous
 62
     7
370
    15
100
AcDbLine
 10
8.38154893
 20
5.2401653377
 30
0.0
 11
8.3817598343
 21
5.2399546352
 31
0.0
  0
LINE
  5
37D
330
1F
100
AcDbEntity
  8
0
  6
Continuous
 62
     7
370
    15
100
AcDbLine
 10
7.6317597517
 20
5.2399546352
 30
0.0
 11
7.6317597517
 21
5.1816753651
 31
0.0
  0
LINE
  5
37E
330
1F
100
AcDbEntity
  8
0
  6
Continuous
 62
     7
370
    15
100
AcDbLine
 10
7.6307090438
 20
5.2504950801
 30
0.0
 11
7.6307090438
 21
5.1841371917
 31
0.0
  0
ELLIPSE
  5
37F
330
1F
100
AcDbEntity
  8
0
  6
Continuous
 62
     7
370
    15
100
AcDbEllipse
 10
7.6312333401
 20
5.2504948008
 30
0.0
 11
-1.470720967233774E-8
 21
0.01000000104970322
 31
0.0
210
0.0
220
0.0
230
1.0
 40
0.0524337502
 41
1.570768277670959
 42
3.089206722434139
  0
LINE
  5
380
330
1F
100
AcDbEntity
  8
0
  6
Continuous
 62
     7
370
    15
100
AcDbLine
 10
7.6312059447
 20
5.2405085154
 30
0.0
 11
7.6317597517
 21
5.2399546352
 31
0.0
  0
LINE
  5
381
330
1F
100
AcDbEntity
  8
0
  6
Continuous
 62
     7
370
    15
100
AcDbLine
 10
3.1305385635
 20
5.1845365787
 30
0.0
 11
3.1305385635
 21
5.2506655414
 31
0.0
  0
ELLIPSE
  5
382
330
1F
100
AcDbEntity
  8
0
  6
Continuous
 62
     7
370
    15
100
AcDbEllipse
 10
3.1310623914
 20
5.2506657495
 30
0.0
 11
1.048909137324472E-8
 21
0.01000000104778564
 31
0.0
210
0.0
220
0.0
230
1.0
 40
0.0523858104
 41
1.57081634956415
 42
3.089254794327601
  0
LINE
  5
383
330
1F
100
AcDbEntity
  8
0
  6
Continuous
 62
     7
370
    15
100
AcDbLine
 10
3.1310350244
 20
5.2406794351
 30
0.0
 11
3.1317598427
 21
5.2399546352
 31
0.0
  0
LINE
  5
384
330
1F
100
AcDbEntity
  8
0
  6
Continuous
 62
     7
370
    15
100
AcDbLine
 10
3.1317598427
 20
5.1816753651
 30
0.0
 11
3.1317598427
 21
5.2399546352
 31
0.0
  0
ELLIPSE
  5
385
330
1F
100
AcDbEntity
  8
0
  6
Continuous
 62
     7
370
    15
100
AcDbEllipse
 10
3.5076293868
 20
5.2508379746
 30
0.0
 11
1.470720922824853E-8
 21
0.01000000104970411
 31
0.0
210
0.0
220
0.0
230
1.0
 40
0.0524337502
 41
3.193978584744829
 42
4.712417029508804
  0
LINE
  5
386
330
1F
100
AcDbEntity
  8
0
  6
Continuous
 62
     7
370
    15
100
AcDbLine
 10
3.5081537879
 20
5.2508382578
 30
0.0
 11
3.5081537879
 21
5.1849411907
 31
0.0
  0
LINE
  5
387
330
1F
100
AcDbEntity
  8
0
  6
Continuous
 62
     7
370
    15
100
AcDbLine
 10
3.5067597373
 20
5.2399546352
 30
0.0
 11
3.5067597373
 21
5.1816753651
 31
0.0
  0
LINE
  5
388
330
1F
100
AcDbEntity
  8
0
  6
Continuous
 62
     7
370
    15
100
AcDbLine
 10
3.507656887
 20
5.2408516932
 30
0.0
 11
3.5067597373
 21
5.2399546352
 31
0.0
  0
LINE
  5
389
330
1F
100
AcDbEntity
  8
0
  6
Continuous
 62
     7
370
    15
100
AcDbLine
 10
8.006759793
 20
5.1816753651
 30
0.0
 11
8.006759793
 21
5.2399546352
 31
0.0
  0
LINE
  5
38A
330
1F
100
AcDbEntity
  8
0
  6
Continuous
 62
     7
370
    15
100
AcDbLine
 10
8.0071417086
 20
5.2403365874
 30
0.0
 11
8.006759793
 21
5.2399546352
 31
0.0
  0
ELLIPSE
  5
38B
330
1F
100
AcDbEntity
  8
0
  6
Continuous
 62
     7
370
    15
100
AcDbEllipse
 10
8.0071143017
 20
5.2503228895
 30
0.0
 11
-1.048909226142314E-8
 21
0.01000000104778476
 31
0.0
210
0.0
220
0.0
230
1.0
 40
0.0523858104
 41
3.19393051284802
 42
4.712368957615343
  0
LINE
  5
38C
330
1F
100
AcDbEntity
  8
0
  6
Continuous
 62
     7
370
    15
100
AcDbLine
 10
8.0076380228
 20
5.1837332947
 30
0.0
 11
8.0076380228
 21
5.2503226937
 31
0.0
  0
ELLIPSE
  5
38D
330
1F
100
AcDbEntity
  8
0
  6
Continuous
 62
     7
370
    15
100
AcDbEllipse
 10
2.757286213
 20
5.2504948008
 30
0.0
 11
1.470720967233774E-8
 21
0.01000000104970322
 31
0.0
210
0.0
220
0.0
230
1.0
 40
0.0524337502
 41
3.193978584746557
 42
4.712417029508629
  0
LINE
  5
38E
330
1F
100
AcDbEntity
  8
0
  6
Continuous
 62
     7
370
    15
100
AcDbLine
 10
2.7578105093
 20
5.2504950801
 30
0.0
 11
2.7578105093
 21
5.1841371917
 31
0.0
  0
LINE
  5
38F
330
1F
100
AcDbEntity
  8
0
  6
Continuous
 62
     7
370
    15
100
AcDbLine
 10
2.7567598014
 20
5.2399546352
 30
0.0
 11
2.7567598014
 21
5.1816753651
 31
0.0
  0
LINE
  5
390
330
1F
100
AcDbEntity
  8
0
  6
Continuous
 62
     7
370
    15
100
AcDbLine
 10
2.7573136083
 20
5.2405085154
 30
0.0
 11
2.7567598014
 21
5.2399546352
 31
0.0
  0
LINE
  5
391
330
1F
100
AcDbEntity
  8
0
  6
Continuous
 62
     7
370
    15
100
AcDbLine
 10
2.3808815303
 20
5.1837332947
 30
0.0
 11
2.3808815303
 21
5.2503226937
 31
0.0
  0
ELLIPSE
  5
392
330
1F
100
AcDbEntity
  8
0
  6
Continuous
 62
     7
370
    15
100
AcDbEllipse
 10
2.3814052514
 20
5.2503228895
 30
0.0
 11
1.048909137324472E-8
 21
0.01000000104778476
 31
0.0
210
0.0
220
0.0
230
1.0
 40
0.0523858104
 41
1.570816349564239
 42
3.08925479432765
  0
LINE
  5
393
330
1F
100
AcDbEntity
  8
0
  6
Continuous
 62
     7
370
    15
100
AcDbLine
 10
2.3813778445
 20
5.2403365874
 30
0.0
 11
2.3817597601
 21
5.2399546352
 31
0.0
  0
LINE
  5
394
330
1F
100
AcDbEntity
  8
0
  6
Continuous
 62
     7
370
    15
100
AcDbLine
 10
2.3817597601
 20
5.1816753651
 30
0.0
 11
2.3817597601
 21
5.2399546352
 31
0.0
  0
LINE
  5
395
330
1F
100
AcDbEntity
  8
0
  6
Continuous
 62
     7
370
    15
100
AcDbLine
 10
6.8817598157
 20
5.2399546352
 30
0.0
 11
6.8817598157
 21
5.1816753651
 31
0.0
  0
LINE
  5
396
330
1F
100
AcDbEntity
  8
0
  6
Continuous
 62
     7
370
    15
100
AcDbLine
 10
6.8803657652
 20
5.2508382578
 30
0.0
 11
6.8803657652
 21
5.1849411907
 31
0.0
  0
ELLIPSE
  5
397
330
1F
100
AcDbEntity
  8
0
  6
Continuous
 62
     7
370
    15
100
AcDbEllipse
 10
6.8808901663
 20
5.2508379746
 30
0.0
 11
-1.470720789598090E-8
 21
0.01000000104970411
 31
0.0
210
0.0
220
0.0
230
1.0
 40
0.0524337502
 41
1.57076827767079
 42
3.089206722437602
  0
LINE
  5
398
330
1F
100
AcDbEntity
  8
0
  6
Continuous
 62
     7
370
    15
100
AcDbLine
 10
6.8808626661
 20
5.2408516932
 30
0.0
 11
6.8817598157
 21
5.2399546352
 31
0.0
  0
LINE
  5
399
330
1F
100
AcDbEntity
  8
0
  6
Continuous
 62
     7
370
    15
100
AcDbLine
 10
2.3817597601
 20
5.2399546352
 30
0.0
 11
2.7567598014
 21
5.2399546352
 31
0.0
  0
LINE
  5
39A
330
1F
100
AcDbEntity
  8
0
  6
Continuous
 62
     7
370
    15
100
AcDbLine
 10
5.0088400702
 20
5.2420349311
 30
0.0
 11
5.0088400702
 21
5.1865492255
 31
0.0
  0
LINE
  5
39B
330
1F
100
AcDbEntity
  8
0
  6
Continuous
 62
     7
370
    15
100
AcDbLine
 10
5.0067597742
 20
5.2399546352
 30
0.0
 11
5.0067597742
 21
5.1816753651
 31
0.0
  0
LINE
  5
39C
330
1F
100
AcDbEntity
  8
0
  6
Continuous
 62
     7
370
    15
100
AcDbLine
 10
5.0088400702
 20
5.2420349311
 30
0.0
 11
5.0067597742
 21
5.2399546352
 31
0.0
  0
LINE
  5
39D
330
1F
100
AcDbEntity
  8
0
  6
Continuous
 62
     7
370
    15
100
AcDbLine
 10
8.0071417086
 20
5.2403365874
 30
0.0
 11
7.6312059447
 21
5.2405085154
 31
0.0
  0
LINE
  5
39E
330
1F
100
AcDbEntity
  8
0
  6
Continuous
 62
     7
370
    15
100
AcDbLine
 10
8.006759793
 20
5.2399546352
 30
0.0
 11
7.6317597517
 21
5.2399546352
 31
0.0
  0
LINE
  5
39F
330
1F
100
AcDbEntity
  8
0
  6
Continuous
 62
     7
370
    15
100
AcDbLine
 10
7.2567597104
 20
5.2399546352
 30
0.0
 11
6.8817598157
 21
5.2399546352
 31
0.0
  0
LINE
  5
3A0
330
1F
100
AcDbEntity
  8
0
  6
Continuous
 62
     7
370
    15
100
AcDbLine
 10
1.6317596775
 20
5.2399546352
 30
0.0
 11
2.0067597188
 21
5.2399546352
 31
0.0
  0
LINE
  5
3A1
330
1F
100
AcDbEntity
  8
0
  6
Continuous
 62
     7
370
    15
100
AcDbLine
 10
6.1317598065
 20
5.2399546352
 30
0.0
 11
6.1317598065
 21
5.1816753651
 31
0.0
  0
LINE
  5
3A2
330
1F
100
AcDbEntity
  8
0
  6
Continuous
 62
     7
370
    15
100
AcDbLine
 10
6.5067597744
 20
5.2399546352
 30
0.0
 11
6.1317598065
 21
5.2399546352
 31
0.0
  0
LINE
  5
3A3
330
1F
100
AcDbEntity
  8
0
  6
Continuous
 62
     7
370
    15
100
AcDbLine
 10
6.5067597744
 20
5.1816753651
 30
0.0
 11
6.5067597744
 21
5.2399546352
 31
0.0
  0
LINE
  5
3A4
330
1F
100
AcDbEntity
  8
0
  6
Continuous
 62
     7
370
    15
100
AcDbLine
 10
3.8817597786
 20
5.1816753651
 30
0.0
 11
3.8817597786
 21
5.2399546352
 31
0.0
  0
LINE
  5
3A5
330
1F
100
AcDbEntity
  8
0
  6
Continuous
 62
     7
370
    15
100
AcDbLine
 10
3.8817597786
 20
5.2399546352
 30
0.0
 11
4.2567597466
 21
5.2399546352
 31
0.0
  0
LINE
  5
3A6
330
1F
100
AcDbEntity
  8
0
  6
Continuous
 62
     7
370
    15
100
AcDbLine
 10
4.2567597466
 20
5.2399546352
 30
0.0
 11
4.2567597466
 21
5.1816753651
 31
0.0
  0
LINE
  5
3A7
330
1F
100
AcDbEntity
  8
0
  6
Continuous
 62
     7
370
    15
100
AcDbLine
 10
5.3817597789
 20
5.2399546352
 30
0.0
 11
5.3817597789
 21
5.1816753651
 31
0.0
  0
LINE
  5
3A8
330
1F
100
AcDbEntity
  8
0
  6
Continuous
 62
     7
370
    15
100
AcDbLine
 10
5.7567597652
 20
5.2399546352
 30
0.0
 11
5.3817597789
 21
5.2399546352
 31
0.0
  0
LINE
  5
3A9
330
1F
100
AcDbEntity
  8
0
  6
Continuous
 62
     7
370
    15
100
AcDbLine
 10
5.7567597652
 20
5.1816753651
 30
0.0
 11
5.7567597652
 21
5.2399546352
 31
0.0
  0
LINE
  5
3AA
330
1F
100
AcDbEntity
  8
0
  6
Continuous
 62
     7
370
    15
100
AcDbLine
 10
8.7567988884
 20
5.2399937214
 30
0.0
 11
8.38154893
 21
5.2401653377
 31
0.0
  0
LINE
  5
3AB
330
1F
100
AcDbEntity
  8
0
  6
Continuous
 62
     7
370
    15
100
AcDbLine
 10
8.7567598756
 20
5.2399546352
 30
0.0
 11
8.3817598343
 21
5.2399546352
 31
0.0
  0
LINE
  5
3AC
330
1F
100
AcDbEntity
  8
0
  6
Continuous
 62
     7
370
    15
100
AcDbLine
 10
4.6317597879
 20
5.2399546352
 30
0.0
 11
5.0067597742
 21
5.2399546352
 31
0.0
  0
LINE
  5
3AD
330
1F
100
AcDbEntity
  8
0
  6
Continuous
 62
     7
370
    15
100
AcDbLine
 10
4.6298528133
 20
5.2418616098
 30
0.0
 11
4.6317597879
 21
5.2399546352
 31
0.0
  0
LINE
  5
3AE
330
1F
100
AcDbEntity
  8
0
  6
Continuous
 62
     7
370
    15
100
AcDbLine
 10
4.6298528133
 20
5.2418616098
 30
0.0
 11
5.0088400702
 21
5.2420349311
 31
0.0
  0
LINE
  5
3AF
330
1F
100
AcDbEntity
  8
0
  6
Continuous
 62
     7
370
    15
100
AcDbLine
 10
5.7586667398
 20
5.2418616098
 30
0.0
 11
5.7567597652
 21
5.2399546352
 31
0.0
  0
LINE
  5
3B0
330
1F
100
AcDbEntity
  8
0
  6
Continuous
 62
     7
370
    15
100
AcDbLine
 10
5.7586667398
 20
5.1861431285
 30
0.0
 11
5.7586667398
 21
5.2418616098
 31
0.0
  0
LINE
  5
3B1
330
1F
100
AcDbEntity
  8
0
  6
Continuous
 62
     7
370
    15
100
AcDbLine
 10
3.8801957434
 20
5.2415187438
 30
0.0
 11
3.8817597786
 21
5.2399546352
 31
0.0
  0
LINE
  5
3B2
330
1F
100
AcDbEntity
  8
0
  6
Continuous
 62
     7
370
    15
100
AcDbLine
 10
3.8801957434
 20
5.2415187438
 30
0.0
 11
4.2584969199
 21
5.2416917534
 31
0.0
  0
LINE
  5
3B3
330
1F
100
AcDbEntity
  8
0
  6
Continuous
 62
     7
370
    15
100
AcDbLine
 10
4.2584969199
 20
5.2416917534
 30
0.0
 11
4.2567597466
 21
5.2399546352
 31
0.0
  0
LINE
  5
3B4
330
1F
100
AcDbEntity
  8
0
  6
Continuous
 62
     7
370
    15
100
AcDbLine
 10
2.3813778445
 20
5.2403365874
 30
0.0
 11
2.7573136083
 21
5.2405085154
 31
0.0
  0
LINE
  5
3B5
330
1F
100
AcDbEntity
  8
0
  6
Continuous
 62
     7
370
    15
100
AcDbLine
 10
6.5083238097
 20
5.2415187438
 30
0.0
 11
6.1300226332
 21
5.2416917534
 31
0.0
  0
LINE
  5
3B6
330
1F
100
AcDbEntity
  8
0
  6
Continuous
 62
     7
370
    15
100
AcDbLine
 10
6.5083238097
 20
5.2415187438
 30
0.0
 11
6.5067597744
 21
5.2399546352
 31
0.0
  0
LINE
  5
3B7
330
1F
100
AcDbEntity
  8
0
  6
Continuous
 62
     7
370
    15
100
AcDbLine
 10
6.1300226332
 20
5.2416917534
 30
0.0
 11
6.1317598065
 21
5.2399546352
 31
0.0
  0
LINE
  5
3B8
330
1F
100
AcDbEntity
  8
0
  6
Continuous
 62
     7
370
    15
100
AcDbLine
 10
1.6317206646
 20
5.2399937214
 30
0.0
 11
2.006970623
 21
5.2401653377
 31
0.0
  0
LINE
  5
3B9
330
1F
100
AcDbEntity
  8
0
  6
Continuous
 62
     7
370
    15
100
AcDbLine
 10
3.1317598427
 20
5.2399546352
 30
0.0
 11
3.5067597373
 21
5.2399546352
 31
0.0
  0
LINE
  5
3BA
330
1F
100
AcDbEntity
  8
0
  6
Continuous
 62
     7
370
    15
100
AcDbLine
 10
3.1310350244
 20
5.2406794351
 30
0.0
 11
3.507656887
 21
5.2408516932
 31
0.0
  0
LINE
  5
3BB
330
1F
100
AcDbEntity
  8
0
  6
Continuous
 62
     7
370
    15
100
AcDbLine
 10
4.6298528133
 20
5.1861431285
 30
0.0
 11
4.6298528133
 21
5.2418616098
 31
0.0
  0
LINE
  5
3BC
330
1F
100
AcDbEntity
  8
0
  6
Continuous
 62
     7
370
    15
100
AcDbLine
 10
4.6317597879
 20
5.1816753651
 30
0.0
 11
4.6317597879
 21
5.2399546352
 31
0.0
  0
LINE
  5
3BD
330
1F
100
AcDbEntity
  8
0
  6
Continuous
 62
     7
370
    15
100
AcDbLine
 10
6.5083238097
 20
5.1853398444
 30
0.0
 11
6.5083238097
 21
5.2415187438
 31
0.0
  0
LINE
  5
3BE
330
1F
100
AcDbEntity
  8
0
  6
Continuous
 62
     7
370
    15
100
AcDbLine
 10
6.1300226332
 20
5.2416917534
 30
0.0
 11
6.1300226332
 21
5.1857452081
 31
0.0
  0
LINE
  5
3BF
330
1F
100
AcDbEntity
  8
0
  6
Continuous
 62
     7
370
    15
100
AcDbLine
 10
7.2574845287
 20
5.2406794351
 30
0.0
 11
6.8808626661
 21
5.2408516932
 31
0.0
  0
LINE
  5
3C0
330
1F
100
AcDbEntity
  8
0
  6
Continuous
 62
     7
370
    15
100
AcDbLine
 10
5.3796794829
 20
5.2420349311
 30
0.0
 11
5.3796794829
 21
5.1865492255
 31
0.0
  0
LINE
  5
3C1
330
1F
100
AcDbEntity
  8
0
  6
Continuous
 62
     7
370
    15
100
AcDbLine
 10
5.3796794829
 20
5.2420349311
 30
0.0
 11
5.3817597789
 21
5.2399546352
 31
0.0
  0
LINE
  5
3C2
330
1F
100
AcDbEntity
  8
0
  6
Continuous
 62
     7
370
    15
100
AcDbLine
 10
4.2584969199
 20
5.2416917534
 30
0.0
 11
4.2584969199
 21
5.1857452081
 31
0.0
  0
LINE
  5
3C3
330
1F
100
AcDbEntity
  8
0
  6
Continuous
 62
     7
370
    15
100
AcDbLine
 10
3.8801957434
 20
5.1853398444
 30
0.0
 11
3.8801957434
 21
5.2415187438
 31
0.0
  0
LINE
  5
3C4
330
1F
100
AcDbEntity
  8
0
  6
Continuous
 62
     7
370
    15
100
AcDbLine
 10
5.7586667398
 20
5.2418616098
 30
0.0
 11
5.3796794829
 21
5.2420349311
 31
0.0
  0
LINE
  5
3C5
330
1F
100
AcDbEntity
  8
0
  6
Continuous
 62
     7
370
    15
100
AcDbLine
 10
1.6312243504
 20
5.7611794706
 30
0.0
 11
2.0074672306
 21
5.7610073593
 31
0.0
  0
LINE
  5
3C6
330
1F
100
AcDbEntity
  8
0
  6
Continuous
 62
     7
370
    15
100
AcDbLine
 10
8.7572952027
 20
5.7611794706
 30
0.0
 11
8.3810523224
 21
5.7610073593
 31
0.0
  0
LINE
  5
3C7
330
1F
100
AcDbEntity
  8
0
  6
Continuous
 62
     7
370
    15
100
AcDbLine
 10
2.0074672306
 20
5.2501519024
 30
0.0
 11
1.6312243504
 21
5.2499798277
 31
0.0
  0
LINE
  5
3C8
330
1F
100
AcDbEntity
  8
0
  6
Continuous
 62
     7
370
    15
100
AcDbLine
 10
8.3810523224
 20
5.2501519024
 30
0.0
 11
8.7572952027
 21
5.2499798277
 31
0.0
  0
LINE
  5
3C9
330
1F
100
AcDbEntity
  8
0
  6
Continuous
 62
     7
370
    15
100
AcDbLine
 10
8.0076380228
 20
5.7608365679
 30
0.0
 11
7.6307090438
 21
5.7606642366
 31
0.0
  0
LINE
  5
3CA
330
1F
100
AcDbEntity
  8
0
  6
Continuous
 62
     7
370
    15
100
AcDbLine
 10
2.3808815303
 20
5.7608365679
 30
0.0
 11
2.7578105093
 21
5.7606642366
 31
0.0
  0
LINE
  5
3CB
330
1F
100
AcDbEntity
  8
0
  6
Continuous
 62
     7
370
    15
100
AcDbLine
 10
7.6307090438
 20
5.2504950801
 30
0.0
 11
8.0076380228
 21
5.2503226937
 31
0.0
  0
LINE
  5
3CC
330
1F
100
AcDbEntity
  8
0
  6
Continuous
 62
     7
370
    15
100
AcDbLine
 10
2.7578105093
 20
5.2504950801
 30
0.0
 11
2.3808815303
 21
5.2503226937
 31
0.0
  0
LINE
  5
3CD
330
1F
100
AcDbEntity
  8
0
  6
Continuous
 62
     7
370
    15
100
AcDbLine
 10
6.8803657652
 20
5.2508382578
 30
0.0
 11
7.2579809896
 21
5.2506655414
 31
0.0
  0
LINE
  5
3CE
330
1F
100
AcDbEntity
  8
0
  6
Continuous
 62
     7
370
    15
100
AcDbLine
 10
5.2488006252
 20
5.233307907
 30
0.0
 11
5.2488006252
 21
5.1866894555
 31
0.0
  0
ARC
  5
3CF
330
1F
100
AcDbEntity
  8
0
  6
Continuous
 62
     7
370
    15
100
AcDbCircle
 10
5.194386764
 20
5.5055796409
 30
0.0
 40
0.2776558316017475
100
AcDbArc
 50
281.3017402436
 51
78.6982597564
  0
LINE
  5
3D0
330
1F
100
AcDbEntity
  8
0
  6
Continuous
 62
     7
370
    15
100
AcDbLine
 10
5.2488006252
 20
5.8244698061
 30
0.0
 11
5.2488006252
 21
5.7778513914
 31
0.0
  0
LINE
  5
3D1
330
1F
100
AcDbEntity
  8
0
  6
Continuous
 62
     7
370
    15
100
AcDbLine
 10
7.2579809896
 20
5.7604937385
 30
0.0
 11
6.8803657652
 21
5.7603210405
 31
0.0
  0
LINE
  5
3D2
330
1F
100
AcDbEntity
  8
0
  6
Continuous
 62
     7
370
    15
100
AcDbLine
 10
3.1305385635
 20
5.7604937385
 30
0.0
 11
3.5081537879
 21
5.7603210405
 31
0.0
  0
LINE
  5
3D3
330
1F
100
AcDbEntity
  8
0
  6
Continuous
 62
     7
370
    15
100
AcDbLine
 10
5.1397189278
 20
5.8244698061
 30
0.0
 11
5.1397189278
 21
5.7778513914
 31
0.0
  0
ARC
  5
3D4
330
1F
100
AcDbEntity
  8
0
  6
Continuous
 62
     7
370
    15
100
AcDbCircle
 10
5.194132789
 20
5.5055796409
 30
0.0
 40
0.2776558316017473
100
AcDbArc
 50
101.3017402436
 51
258.6982597564
  0
LINE
  5
3D5
330
1F
100
AcDbEntity
  8
0
  6
Continuous
 62
     7
370
    15
100
AcDbLine
 10
5.1397189278
 20
5.233307907
 30
0.0
 11
5.1397189278
 21
5.1866894555
 31
0.0
  0
LINE
  5
3D6
330
1F
100
AcDbEntity
  8
0
  6
Continuous
 62
     7
370
    15
100
AcDbLine
 10
3.5081537879
 20
5.2508382578
 30
0.0
 11
3.1305385635
 21
5.2506655414
 31
0.0
  0
ARC
  5
3D7
330
1F
100
AcDbEntity
  8
0
  6
Continuous
 62
     7
370
    15
100
AcDbCircle
 10
5.1942597765
 20
5.5047855918
 30
0.0
 40
0.2784593956843434
100
AcDbArc
 50
78.7046573398
 51
101.2953426602
  0
ARC
  5
3D8
330
1F
100
AcDbEntity
  8
0
  6
Continuous
 62
     7
370
    15
100
AcDbCircle
 10
5.1942597765
 20
5.5063718234
 30
0.0
 40
0.2784575490528735
100
AcDbArc
 50
258.7045814474
 51
281.2954185526
  0
CIRCLE
  5
3D9
330
1F
100
AcDbEntity
  8
0
  6
Continuous
 62
     7
370
    15
100
AcDbCircle
 10
5.1942597765
 20
5.5055796409
 30
0.0
 40
0.2759974872602973
  0
CIRCLE
  5
3DA
330
1F
100
AcDbEntity
  8
0
  6
Continuous
 62
     7
370
    15
100
AcDbCircle
 10
5.1942597765
 20
5.5055796409
 30
0.0
 40
0.2685077657496384
  0
CIRCLE
  5
3DB
330
1F
100
AcDbEntity
  8
0
  6
Continuous
 62
     7
370
    15
100
AcDbCircle
 10
5.1942597765
 20
5.5055796409
 30
0.0
 40
0.2050000000000001
  0
INSERT
  5
3E7
330
1F
100
AcDbEntity
  8
0
  6
Continuous
 62
     7
370
     0
100
AcDbBlockReference
  2
SW_CENTERMARKSYMBOL_0
 10
5.1942597765
 20
5.5055796409
 30
0.0
  0
INSERT
  5
3F3
330
1F
100
AcDbEntity
  8
0
  6
Continuous
 62
     7
370
     0
100
AcDbBlockReference
  2
SW_CENTERMARKSYMBOL_1
 10
6.4442597765
 20
5.5055796409
 30
0.0
  0
INSERT
  5
3FF
330
1F
100
AcDbEntity
  8
0
  6
Continuous
 62
     7
370
     0
100
AcDbBlockReference
  2
SW_CENTERMARKSYMBOL_2
 10
7.9442597765
 20
5.5055796409
 30
0.0
  0
INSERT
  5
40B
330
1F
100
AcDbEntity
  8
0
  6
Continuous
 62
     7
370
     0
100
AcDbBlockReference
  2
SW_CENTERMARKSYMBOL_3
 10
3.9442597765
 20
5.5055796409
 30
0.0
  0
INSERT
  5
417
330
1F
100
AcDbEntity
  8
0
  6
Continuous
 62
     7
370
     0
100
AcDbBlockReference
  2
SW_CENTERMARKSYMBOL_4
 10
2.4442597765
 20
5.5055796409
 30
0.0
  0
LINE
  5
418
330
1F
100
AcDbEntity
  8
0
  6
Continuous
 62
     7
370
    15
100
AcDbLine
 10
11.3291464503
 20
2.7721781589
 30
0.0
 11
11.3311897317
 21
2.7331901277
 31
0.0
  0
LINE
  5
419
330
1F
100
AcDbEntity
  8
0
  6
Continuous
 62
     7
370
    15
100
AcDbLine
 10
12.0030255606
 20
2.7331901277
 30
0.0
 11
12.005068897
 21
2.7721781589
 31
0.0
  0
LINE
  5
41A
330
1F
100
AcDbEntity
  8
0
  6
Continuous
 62
     7
370
    15
100
AcDbLine
 10
12.0050391973
 20
2.7721781161
 30
0.0
 11
12.0246753638
 21
2.7721781161
 31
0.0
  0
LINE
  5
41B
330
1F
100
AcDbEntity
  8
0
  6
Continuous
 62
     7
370
    15
100
AcDbLine
 10
11.3095399651
 20
2.7721781161
 30
0.0
 11
11.32917615
 21
2.7721781161
 31
0.0
  0
LINE
  5
41C
330
1F
100
AcDbEntity
  8
0
  6
Continuous
 62
     7
370
    15
100
AcDbLine
 10
11.4489434447
 20
3.213103822
 30
0.0
 11
11.6846909614
 21
3.2427665927
 31
0.0
  0
ARC
  5
41D
330
1F
100
AcDbEntity
  8
0
  6
Continuous
 62
     7
370
    15
100
AcDbCircle
 10
11.4437937826
 20
3.2540311148
 30
0.0
 40
0.0412499999999997
100
AcDbArc
 50
195.8476086435
 51
277.1715123168
  0
LINE
  5
41E
330
1F
100
AcDbEntity
  8
0
  6
Continuous
 62
     7
370
    15
100
AcDbLine
 10
11.1980485989
 20
3.2427665927
 30
0.0
 11
11.4041116293
 21
3.2427665927
 31
0.0
  0
ARC
  5
41F
330
1F
100
AcDbEntity
  8
0
  6
Continuous
 62
     7
370
    15
100
AcDbCircle
 10
11.1980485985
 20
3.2115165777
 30
0.0
 40
0.03125
100
AcDbArc
 50
90.0
 51
178.0
  0
LINE
  5
420
330
1F
100
AcDbEntity
  8
0
  6
Continuous
 62
     7
370
    15
100
AcDbLine
 10
11.166817636
 20
3.2126071777
 30
0.0
 11
11.1515017131
 21
2.7740165777
 31
0.0
  0
LINE
  5
421
330
1F
100
AcDbEntity
  8
0
  6
Continuous
 62
     7
370
    15
100
AcDbLine
 10
11.1515017131
 20
2.7740165777
 30
0.0
 11
11.1202326654
 21
2.7740165777
 31
0.0
  0
LINE
  5
422
330
1F
100
AcDbEntity
  8
0
  6
Continuous
 62
     7
370
    15
100
AcDbLine
 10
11.1355866718
 20
3.2136977785
 30
0.0
 11
11.1202326654
 21
2.7740165777
 31
0.0
  0
ARC
  5
423
330
1F
100
AcDbEntity
  8
0
  6
Continuous
 62
     7
370
    15
100
AcDbCircle
 10
11.1980485985
 20
3.2115165777
 30
0.0
 40
0.0625000000000011
100
AcDbArc
 50
90.0
 51
178.0
  0
LINE
  5
424
330
1F
100
AcDbEntity
  8
0
  6
Continuous
 62
     7
370
    15
100
AcDbLine
 10
11.1980485989
 20
3.2740165717
 30
0.0
 11
11.2014826676
 21
3.2740165717
 31
0.0
  0
ARC
  5
425
330
1F
100
AcDbEntity
  8
0
  6
Continuous
 62
     7
370
    15
100
AcDbCircle
 10
11.2014826654
 20
3.2865165777
 30
0.0
 40
0.0125000000000011
100
AcDbArc
 50
270.0
 51
0.0
  0
LINE
  5
426
330
1F
100
AcDbEntity
  8
0
  6
Continuous
 62
     7
370
    15
100
AcDbLine
 10
11.2139826665
 20
3.367766582
 30
0.0
 11
11.2139826665
 21
3.2865165706
 31
0.0
  0
ARC
  5
427
330
1F
100
AcDbEntity
  8
0
  6
Continuous
 62
     7
370
    15
100
AcDbCircle
 10
11.2452326654
 20
3.3677665777
 30
0.0
 40
0.03125
100
AcDbArc
 50
90.0
 51
180.0
  0
LINE
  5
428
330
1F
100
AcDbEntity
  8
0
  6
Continuous
 62
     7
370
    15
100
AcDbLine
 10
11.2452326639
 20
3.3990165977
 30
0.0
 11
15.3702327423
 21
3.3990165977
 31
0.0
  0
LINE
  5
429
330
1F
100
AcDbEntity
  8
0
  6
Continuous
 62
     7
370
    15
100
AcDbLine
 10
11.6846909614
 20
3.2427665927
 30
0.0
 11
15.3702327423
 21
3.2427665927
 31
0.0
  0
LINE
  5
42A
330
1F
100
AcDbEntity
  8
0
  6
Continuous
 62
     7
370
    15
100
AcDbLine
 10
15.3702327423
 20
3.2427665927
 30
0.0
 11
15.3702327423
 21
3.3990165977
 31
0.0
  0
LINE
  5
42B
330
1F
100
AcDbEntity
  8
0
  6
Continuous
 62
     7
370
    15
100
AcDbLine
 10
15.2028372628
 20
3.1023962242
 30
0.0
 11
15.2151181076
 21
3.2427665927
 31
0.0
  0
ELLIPSE
  5
42C
330
1F
100
AcDbEntity
  8
0
  6
Continuous
 62
     7
370
    15
100
AcDbEllipse
 10
14.921386652
 20
3.1123835916
 30
0.0
 11
0.2814527937420621
 21
-0.009950787563804742
 31
0.0
210
0.0
220
0.0
230
0.9999999999999999
 40
0.0500316714
 41
4.717384895869445
 42
6.280585026118048
  0
LINE
  5
42D
330
1F
100
AcDbEntity
  8
0
  6
Continuous
 62
     7
370
    15
100
AcDbLine
 10
14.9349381442
 20
3.2427665927
 30
0.0
 11
14.9222950369
 21
3.0982524988
 31
0.0
  0
LINE
  5
42E
330
1F
100
AcDbEntity
  8
0
  6
Continuous
 62
     7
370
    15
100
AcDbLine
 10
11.1594737495
 20
3.0023058322
 30
0.0
 11
11.2818083872
 21
2.9980338115
 31
0.0
  0
LINE
  5
42F
330
1F
100
AcDbEntity
  8
0
  6
Continuous
 62
     7
370
    15
100
AcDbLine
 10
12.0524069235
 20
2.9980338115
 30
0.0
 11
14.9222950369
 21
3.0982524988
 31
0.0
  0
LINE
  5
430
330
1F
100
AcDbEntity
  8
0
  6
Continuous
 62
     7
370
    15
100
AcDbLine
 10
12.0524069235
 20
2.9980338115
 30
0.0
 11
12.0287247837
 21
2.8051581507
 31
0.0
  0
LINE
  5
431
330
1F
100
AcDbEntity
  8
0
  6
Continuous
 62
     7
370
    15
100
AcDbLine
 10
12.0287247837
 20
2.8051581507
 30
0.0
 11
11.3054905269
 21
2.8051581507
 31
0.0
  0
LINE
  5
432
330
1F
100
AcDbEntity
  8
0
  6
Continuous
 62
     7
370
    15
100
AcDbLine
 10
11.3054905269
 20
2.8051581507
 30
0.0
 11
11.2818083872
 21
2.9980338115
 31
0.0
  0
LINE
  5
433
330
1F
100
AcDbEntity
  8
0
  6
Continuous
 62
     7
370
    15
100
AcDbLine
 10
14.927943105
 20
2.9501299882
 30
0.0
 11
14.9279472117
 21
2.9501301349
 31
0.0
  0
ARC
  5
434
330
1F
100
AcDbEntity
  8
0
  6
Continuous
 62
     7
370
    15
100
AcDbCircle
 10
27.8154577162
 20
3.515713498
 30
0.0
 40
12.89991928496558
100
AcDbArc
 50
181.8545023188
 51
182.5128792285
  0
ARC
  5
435
330
1F
100
AcDbEntity
  8
0
  6
Continuous
 62
     7
370
    15
100
AcDbCircle
 10
15.0409555613
 20
3.11655903
 30
0.0
 40
0.1624999999999999
100
AcDbArc
 50
274.2256702633
 51
355.0
  0
LWPOLYLINE
  5
436
330
1F
100
AcDbEntity
  8
0
  6
Continuous
 62
     7
370
    15
100
AcDbPolyline
 90
       10
 70
   128
 43
0.0
 10
14.9279472117
 20
2.9501301349
 10
14.9489475824
 20
2.9508643764
 10
14.9693765464
 20
2.9515787998
 10
14.9886450971
 20
2.9522525604
 10
15.0062079342
 20
2.9528666833
 10
15.0214305851
 20
2.9533990221
 10
15.0340249996
 20
2.9538393654
 10
15.0435394497
 20
2.9541721849
 10
15.0498398835
 20
2.9543924573
 10
15.0529292345
 20
2.9545007694
  0
ELLIPSE
  5
437
330
1F
100
AcDbEntity
  8
0
  6
Continuous
 62
     7
370
    15
100
AcDbEllipse
 10
5.2460313196
 20
2.7745127383
 30
0.0
 11
133.33651582278
 21
4.650559858391344
 31
0.0
210
0.0
220
0.0
230
1.0
 40
0.0012172438
 41
4.763277881731765
 42
4.785023092464809
  0
LINE
  5
438
330
1F
100
AcDbEntity
  8
0
  6
Continuous
 62
     7
370
    15
100
AcDbLine
 10
11.2235268713
 20
2.8516327994
 30
0.0
 11
11.1542965562
 21
2.8540503698
 31
0.0
  0
ELLIPSE
  5
439
330
1F
100
AcDbEntity
  8
0
  6
Continuous
 62
     7
370
    15
100
AcDbEllipse
 10
10.0661099094
 20
3.0546497389
 30
0.0
 11
33.24543241490387
 21
-1.166644695192314
 31
0.0
210
0.0
220
0.0
230
1.0
 40
0.0048818923
 41
4.747381646390155
 42
4.749686781612338
  0
LINE
  5
43A
330
1F
100
AcDbEntity
  8
0
  6
Continuous
 62
     7
370
    15
100
AcDbLine
 10
11.3056472568
 20
2.8038817323
 30
0.0
 11
12.0285704188
 21
2.8039010142
 31
0.0
  0
LINE
  5
43B
330
1F
100
AcDbEntity
  8
0
  6
Continuous
 62
     7
370
    15
100
AcDbLine
 10
11.3056472568
 20
2.8038817323
 30
0.0
 11
11.3054905269
 21
2.8051581507
 31
0.0
  0
LINE
  5
43C
330
1F
100
AcDbEntity
  8
0
  6
Continuous
 62
     7
370
    15
100
AcDbLine
 10
12.0287247837
 20
2.8051581507
 30
0.0
 11
12.0285704188
 21
2.8039010142
 31
0.0
  0
LINE
  5
43D
330
1F
100
AcDbEntity
  8
0
  6
Continuous
 62
     7
370
    15
100
AcDbLine
 10
15.0529292345
 20
2.9545007694
 30
0.0
 11
15.0466267473
 21
2.7740165777
 31
0.0
  0
LINE
  5
43E
330
1F
100
AcDbEntity
  8
0
  6
Continuous
 62
     7
370
    15
100
AcDbLine
 10
14.9279472117
 20
2.9501301349
 30
0.0
 11
14.9279659848
 21
2.7740165777
 31
0.0
  0
LINE
  5
43F
330
1F
100
AcDbEntity
  8
0
  6
Continuous
 62
     7
370
    15
100
AcDbLine
 10
15.0466267473
 20
2.7740165777
 30
0.0
 11
14.9279659848
 21
2.7740165777
 31
0.0
  0
LINE
  5
440
330
1F
100
AcDbEntity
  8
0
  6
Continuous
 62
     7
370
    15
100
AcDbLine
 10
14.9279659848
 20
2.7740165777
 30
0.0
 11
11.1515017131
 21
2.7740165777
 31
0.0
  0
LINE
  5
441
330
1F
100
AcDbEntity
  8
0
  6
Continuous
 62
     7
370
    15
100
AcDbLine
 10
11.9587600186
 20
2.7738018855
 30
0.0
 11
11.9587713118
 21
2.7740165777
 31
0.0
  0
LINE
  5
442
330
1F
100
AcDbEntity
  8
0
  6
Continuous
 62
     7
370
    15
100
AcDbLine
 10
12.0248747549
 20
2.7738018855
 30
0.0
 11
11.9587600186
 21
2.7738018855
 31
0.0
  0
LINE
  5
443
330
1F
100
AcDbEntity
  8
0
  6
Continuous
 62
     7
370
    15
100
AcDbLine
 10
12.0248747549
 20
2.7738018855
 30
0.0
 11
12.0247047702
 21
2.7724177628
 31
0.0
  0
LINE
  5
444
330
1F
100
AcDbEntity
  8
0
  6
Continuous
 62
     7
370
    15
100
AcDbLine
 10
12.0247047702
 20
2.7724177628
 30
0.0
 11
12.0005889421
 21
2.7724177628
 31
0.0
  0
ELLIPSE
  5
445
330
1F
100
AcDbEntity
  8
0
  6
Continuous
 62
     7
370
    15
100
AcDbEllipse
 10
11.6671076654
 20
2.7719398091
 30
0.0
 11
0.3379486807658871
 21
0.0
 31
0.0
210
0.0
220
0.0
230
1.0
 40
0.0087268687
 41
0.1627781959236775
 42
0.7812566809595195
  0
ELLIPSE
  5
446
330
1F
100
AcDbEntity
  8
0
  6
Continuous
 62
     7
370
    15
100
AcDbEllipse
 10
11.6671076654
 20
2.7719398091
 30
0.0
 11
0.3379486807658871
 21
0.0
 31
0.0
210
0.0
220
0.0
230
1.0
 40
0.0087268687
 41
2.360335972630284
 42
2.978814457666107
  0
LINE
  5
447
330
1F
100
AcDbEntity
  8
0
  6
Continuous
 62
     7
370
    15
100
AcDbLine
 10
11.3336263686
 20
2.7724177628
 30
0.0
 11
11.3095105405
 21
2.7724177628
 31
0.0
  0
LINE
  5
448
330
1F
100
AcDbEntity
  8
0
  6
Continuous
 62
     7
370
    15
100
AcDbLine
 10
11.3095105405
 20
2.7724177628
 30
0.0
 11
11.3093405924
 21
2.7738018855
 31
0.0
  0
LINE
  5
449
330
1F
100
AcDbEntity
  8
0
  6
Continuous
 62
     7
370
    15
100
AcDbLine
 10
11.375455292
 20
2.7738018855
 30
0.0
 11
11.3093405924
 21
2.7738018855
 31
0.0
  0
LINE
  5
44A
330
1F
100
AcDbEntity
  8
0
  6
Continuous
 62
     7
370
    15
100
AcDbLine
 10
11.3754440355
 20
2.7740165777
 30
0.0
 11
11.375455292
 21
2.7738018855
 31
0.0
  0
LWPOLYLINE
  5
44B
330
1F
100
AcDbEntity
  8
0
  6
Continuous
 62
     7
370
    15
100
AcDbPolyline
 90
        4
 70
   128
 43
0.0
 10
12.0005889421
 20
2.7724177628
 10
12.0039150837
 20
2.7722402336
 10
12.0050680903
 20
2.7721781594
 10
12.0050391973
 20
2.7721797124
  0
LWPOLYLINE
  5
44C
330
1F
100
AcDbEntity
  8
0
  6
Continuous
 62
     7
370
    15
100
AcDbPolyline
 90
        3
 70
   128
 43
0.0
 10
11.329176095
 20
2.7721797124
 10
11.3302404793
 20
2.772237036
 10
11.3336263686
 20
2.7724177628
  0
LINE
  5
44D
330
1F
100
AcDbEntity
  8
0
  6
Continuous
 62
     7
370
    15
100
AcDbLine
 10
11.3311897317
 20
2.7331901277
 30
0.0
 11
12.0030255606
 21
2.7331901277
 31
0.0
  0
LINE
  5
44E
330
1F
100
AcDbEntity
  8
0
  6
Continuous
 62
     7
370
    15
100
AcDbLine
 10
12.0248747549
 20
2.7738018855
 30
0.0
 11
12.0249010812
 21
2.7740165777
 31
0.0
  0
LINE
  5
44F
330
1F
100
AcDbEntity
  8
0
  6
Continuous
 62
     7
370
    15
100
AcDbLine
 10
11.3093405924
 20
2.7738018855
 30
0.0
 11
11.3093142477
 21
2.7740165777
 31
0.0
  0
LINE
  5
450
330
1F
100
AcDbEntity
  8
0
  6
Continuous
 62
     7
370
    15
100
AcDbLine
 10
12.0246753638
 20
2.7721781161
 30
0.0
 11
12.0247047702
 21
2.7724177628
 31
0.0
  0
LINE
  5
451
330
1F
100
AcDbEntity
  8
0
  6
Continuous
 62
     7
370
    15
100
AcDbLine
 10
11.3095105405
 20
2.7724177628
 30
0.0
 11
11.3095399651
 21
2.7721781161
 31
0.0
  0
ENDSEC
  0
SECTION
  2
OBJECTS
  0
DICTIONARY
  5
C
330
0
100
AcDbDictionary
281
     1
  3
ACAD_GROUP
350
D
  3
ACAD_LAYOUT
350
1A
  3
ACAD_MATERIAL
350
3B
  3
ACAD_MLEADERSTYLE
350
454
  3
ACAD_MLINESTYLE
350
17
  3
ACAD_PLOTSETTINGS
350
19
  3
ACAD_PLOTSTYLENAME
350
E
  3
ACAD_VISUALSTYLE
350
2A
  3
AcDbVariableDictionary
350
452
  0
DICTIONARY
  5
D
102
{ACAD_REACTORS
330
C
102
}
330
C
100
AcDbDictionary
281
     1
  0
DICTIONARY
  5
1A
102
{ACAD_REACTORS
330
C
102
}
330
C
100
AcDbDictionary
281
     1
  3
Layout1
350
1E
  3
Layout2
350
26
  3
Model
350
22
  0
DICTIONARY
  5
3B
102
{ACAD_REACTORS
330
C
102
}
330
C
100
AcDbDictionary
281
     1
  3
ByBlock
350
3D
  3
ByLayer
350
3C
  3
Global
350
3E
  0
DICTIONARY
  5
454
102
{ACAD_REACTORS
330
C
102
}
330
C
100
AcDbDictionary
281
     1
  0
DICTIONARY
  5
17
102
{ACAD_REACTORS
330
C
102
}
330
C
100
AcDbDictionary
281
     1
  3
Standard
350
18
  0
DICTIONARY
  5
19
102
{ACAD_REACTORS
330
C
102
}
330
C
100
AcDbDictionary
281
     1
  0
ACDBDICTIONARYWDFLT
  5
E
102
{ACAD_REACTORS
330
C
102
}
330
C
100
AcDbDictionary
281
     1
  3
Normal
350
F
100
AcDbDictionaryWithDefault
340
F
  0
DICTIONARY
  5
2A
102
{ACAD_REACTORS
330
C
102
}
330
C
100
AcDbDictionary
281
     1
  3
2dWireframe
350
2F
  3
3D Hidden
350
31
  3
3dWireframe
350
30
  3
Basic
350
32
  3
Brighten
350
36
  3
ColorChange
350
3A
  3
Conceptual
350
34
  3
Dim
350
35
  3
Facepattern
350
39
  3
Flat
350
2B
  3
FlatWithEdges
350
2C
  3
Gouraud
350
2D
  3
GouraudWithEdges
350
2E
  3
Linepattern
350
38
  3
Realistic
350
33
  3
Thicken
350
37
  0
DICTIONARY
  5
452
102
{ACAD_REACTORS
330
C
102
}
330
C
100
AcDbDictionary
281
     1
  3
DIMASSOC
350
455
  3
HIDETEXT
350
456
  0
LAYOUT
  5
1E
102
{ACAD_REACTORS
330
1A
102
}
330
1A
100
AcDbPlotSettings
  1

  2
none_device
  4

  6

 40
0.0
 41
0.0
 42
0.0
 43
0.0
 44
0.0
 45
0.0
 46
0.0
 47
0.0
 48
0.0
 49
0.0
140
0.0
141
0.0
142
1.0
143
1.0
 70
   688
 72
     0
 73
     0
 74
     5
  7

 75
    16
147
1.0
148
0.0
149
0.0
100
AcDbLayout
  1
Layout1
 70
     1
 71
     1
 10
0.0
 20
0.0
 11
12.0
 21
9.0
 12
0.0
 22
0.0
 32
0.0
 14
1.0000000000E+20
 24
1.0000000000E+20
 34
1.0000000000E+20
 15
-1.0000000000E+20
 25
-1.0000000000E+20
 35
-1.0000000000E+20
146
0.0
 13
0.0
 23
0.0
 33
0.0
 16
1.0
 26
0.0
 36
0.0
 17
0.0
 27
1.0
 37
0.0
 76
     0
330
1B
  0
LAYOUT
  5
26
102
{ACAD_REACTORS
330
1A
102
}
330
1A
100
AcDbPlotSettings
  1

  2
none_device
  4

  6

 40
0.0
 41
0.0
 42
0.0
 43
0.0
 44
0.0
 45
0.0
 46
0.0
 47
0.0
 48
0.0
 49
0.0
140
0.0
141
0.0
142
1.0
143
1.0
 70
   688
 72
     0
 73
     0
 74
     5
  7

 75
    16
147
1.0
148
0.0
149
0.0
100
AcDbLayout
  1
Layout2
 70
     1
 71
     2
 10
0.0
 20
0.0
 11
0.0
 21
0.0
 12
0.0
 22
0.0
 32
0.0
 14
0.0
 24
0.0
 34
0.0
 15
0.0
 25
0.0
 35
0.0
146
0.0
 13
0.0
 23
0.0
 33
0.0
 16
1.0
 26
0.0
 36
0.0
 17
0.0
 27
1.0
 37
0.0
 76
     0
330
23
  0
LAYOUT
  5
22
102
{ACAD_REACTORS
330
1A
102
}
330
1A
100
AcDbPlotSettings
  1

  2
none_device
  4

  6

 40
0.0
 41
0.0
 42
0.0
 43
0.0
 44
0.0
 45
0.0
 46
0.0
 47
0.0
 48
0.0
 49
0.0
140
0.0
141
0.0
142
1.0
143
1.0
 70
  1712
 72
     0
 73
     0
 74
     0
  7

 75
     0
147
1.0
148
0.0
149
0.0
100
AcDbLayout
  1
Model
 70
     1
 71
     0
 10
0.0
 20
0.0
 11
17.0
 21
11.0
 12
0.0
 22
0.0
 32
0.0
 14
0.0
 24
0.0
 34
0.0
 15
17.0
 25
11.0
 35
0.0
146
0.0
 13
0.0
 23
0.0
 33
0.0
 16
1.0
 26
0.0
 36
0.0
 17
0.0
 27
1.0
 37
0.0
 76
     0
330
1F
331
29
  0
MATERIAL
  5
3D
102
{ACAD_REACTORS
330
3B
102
}
102
{ACAD_XDICTIONARY
360
479
102
}
330
3B
100
AcDbMaterial
  1
ByBlock
  0
MATERIAL
  5
3C
102
{ACAD_REACTORS
330
3B
102
}
102
{ACAD_XDICTIONARY
360
477
102
}
330
3B
100
AcDbMaterial
  1
ByLayer
  0
MATERIAL
  5
3E
102
{ACAD_REACTORS
330
3B
102
}
102
{ACAD_XDICTIONARY
360
47B
102
}
330
3B
100
AcDbMaterial
  1
Global
  0
MLINESTYLE
  5
18
102
{ACAD_REACTORS
330
17
102
}
330
17
100
AcDbMlineStyle
  2
Standard
 70
     0
  3

 62
   256
 51
90.0
 52
90.0
 71
     2
 49
0.5
 62
   256
  6
BYLAYER
 49
-0.5
 62
   256
  6
BYLAYER
  0
ACDBPLACEHOLDER
  5
F
102
{ACAD_REACTORS
330
E
102
}
330
E
  0
VISUALSTYLE
  5
2F
102
{ACAD_REACTORS
330
2A
102
}
102
{ACAD_XDICTIONARY
360
45F
102
}
330
2A
100
AcDbVisualStyle
  2
2dWireframe
 70
     4
 71
     0
 72
     2
 73
     0
 90
        0
 40
-0.6
 41
-30.0
 62
     5
 63
     7
 74
     1
 91
        4
 64
     7
 65
   257
 75
     1
175
     1
 42
1.0
 92
        0
 66
   257
 43
1.0
 76
     1
 77
     6
 78
     2
 67
     7
 79
     5
170
     0
171
     0
290
     0
174
     0
 93
        1
 44
0.0
173
     0
291
     0
 45
0.0
1001
ACAD
1000
AcDbSavedByObjectVersion
1070
     0
  0
VISUALSTYLE
  5
31
102
{ACAD_REACTORS
330
2A
102
}
102
{ACAD_XDICTIONARY
360
463
102
}
330
2A
100
AcDbVisualStyle
  2
3D Hidden
 70
     6
 71
     1
 72
     2
 73
     2
 90
        0
 40
-0.6
 41
-30.0
 62
     5
 63
     7
 74
     2
 91
        2
 64
     7
 65
   257
 75
     2
175
     1
 42
40.0
 92
        0
 66
   257
 43
1.0
 76
     1
 77
     6
 78
     2
 67
     7
 79
     3
170
     0
171
     0
290
     0
174
     0
 93
        1
 44
0.0
173
     0
291
     0
 45
0.0
1001
ACAD
1000
AcDbSavedByObjectVersion
1070
     0
  0
VISUALSTYLE
  5
30
102
{ACAD_REACTORS
330
2A
102
}
102
{ACAD_XDICTIONARY
360
461
102
}
330
2A
100
AcDbVisualStyle
  2
3dWireframe
 70
     5
 71
     0
 72
     2
 73
     0
 90
        0
 40
-0.6
 41
-30.0
 62
     5
 63
     7
 74
     1
 91
        4
 64
     7
 65
   257
 75
     1
175
     1
 42
1.0
 92
        0
 66
   257
 43
1.0
 76
     1
 77
     6
 78
     2
 67
     7
 79
     5
170
     0
171
     0
290
     0
174
     0
 93
        1
 44
0.0
173
     0
291
     0
 45
0.0
1001
ACAD
1000
AcDbSavedByObjectVersion
1070
     0
  0
VISUALSTYLE
  5
32
102
{ACAD_REACTORS
330
2A
102
}
102
{ACAD_XDICTIONARY
360
465
102
}
330
2A
100
AcDbVisualStyle
  2
Basic
 70
     7
 71
     1
 72
     0
 73
     1
 90
        0
 40
-0.6
 41
-30.0
 62
     5
 63
     7
 74
     0
 91
        4
 64
     7
 65
   257
 75
     1
175
     1
 42
1.0
 92
        8
 66
     7
 43
1.0
 76
     1
 77
     6
 78
     2
 67
     7
 79
     5
170
     0
171
     0
290
     0
174
     0
 93
        1
 44
0.0
173
     0
291
     1
 45
0.0
1001
ACAD
1000
AcDbSavedByObjectVersion
1070
     0
  0
VISUALSTYLE
  5
36
102
{ACAD_REACTORS
330
2A
102
}
102
{ACAD_XDICTIONARY
360
46D
102
}
330
2A
100
AcDbVisualStyle
  2
Brighten
 70
    12
 71
     2
 72
     2
 73
     0
 90
        0
 40
-0.6
 41
-30.0
 62
     5
 63
     7
 74
     1
 91
        4
 64
     7
 65
   257
 75
     1
175
     1
 42
1.0
 92
        8
 66
     7
 43
1.0
 76
     1
 77
     6
 78
     2
 67
     7
 79
     5
170
     0
171
     0
290
     0
174
     0
 93
        1
 44
50.0
173
     0
291
     1
 45
0.0
1001
ACAD
1000
AcDbSavedByObjectVersion
1070
     0
  0
VISUALSTYLE
  5
3A
102
{ACAD_REACTORS
330
2A
102
}
102
{ACAD_XDICTIONARY
360
475
102
}
330
2A
100
AcDbVisualStyle
  2
ColorChange
 70
    16
 71
     2
 72
     2
 73
     3
 90
        0
 40
-0.6
 41
-30.0
 62
     5
 63
     8
 74
     1
 91
        4
 64
     7
 65
   257
 75
     1
175
     1
 42
1.0
 92
        8
 66
     8
 43
1.0
 76
     1
 77
     6
 78
     2
 67
     7
 79
     5
170
     0
171
     0
290
     0
174
     0
 93
        1
 44
0.0
173
     0
291
     1
 45
0.0
1001
ACAD
1000
AcDbSavedByObjectVersion
1070
     0
  0
VISUALSTYLE
  5
34
102
{ACAD_REACTORS
330
2A
102
}
102
{ACAD_XDICTIONARY
360
469
102
}
330
2A
100
AcDbVisualStyle
  2
Conceptual
 70
     9
 71
     3
 72
     2
 73
     0
 90
        0
 40
-0.6
 41
-30.0
 62
     5
 63
     7
 74
     2
 91
        2
 64
     7
 65
   257
 75
     1
175
     1
 42
40.0
 92
        8
 66
     7
 43
1.0
 76
     1
 77
     6
 78
     2
 67
     7
 79
     3
170
     0
171
     0
290
     0
174
     0
 93
        1
 44
0.0
173
     0
291
     0
 45
0.0
1001
ACAD
1000
AcDbSavedByObjectVersion
1070
     0
  0
VISUALSTYLE
  5
35
102
{ACAD_REACTORS
330
2A
102
}
102
{ACAD_XDICTIONARY
360
46B
102
}
330
2A
100
AcDbVisualStyle
  2
Dim
 70
    11
 71
     2
 72
     2
 73
     0
 90
        0
 40
-0.6
 41
-30.0
 62
     5
 63
     7
 74
     1
 91
        4
 64
     7
 65
   257
 75
     1
175
     1
 42
1.0
 92
        8
 66
     7
 43
1.0
 76
     1
 77
     6
 78
     2
 67
     7
 79
     5
170
     0
171
     0
290
     0
174
     0
 93
        1
 44
-50.0
173
     0
291
     1
 45
0.0
1001
ACAD
1000
AcDbSavedByObjectVersion
1070
     0
  0
VISUALSTYLE
  5
39
102
{ACAD_REACTORS
330
2A
102
}
102
{ACAD_XDICTIONARY
360
473
102
}
330
2A
100
AcDbVisualStyle
  2
Facepattern
 70
    15
 71
     2
 72
     2
 73
     0
 90
        0
 40
-0.6
 41
-30.0
 62
     5
 63
     7
 74
     1
 91
        4
 64
     7
 65
   257
 75
     1
175
     1
 42
1.0
 92
        8
 66
     7
 43
1.0
 76
     1
 77
     6
 78
     2
 67
     7
 79
     5
170
     0
171
     0
290
     0
174
     0
 93
        1
 44
0.0
173
     0
291
     1
 45
0.0
1001
ACAD
1000
AcDbSavedByObjectVersion
1070
     0
  0
VISUALSTYLE
  5
2B
102
{ACAD_REACTORS
330
2A
102
}
102
{ACAD_XDICTIONARY
360
457
102
}
330
2A
100
AcDbVisualStyle
  2
Flat
 70
     0
 71
     2
 72
     1
 73
     1
 90
        2
 40
-0.6
 41
30.0
 62
     5
 63
     7
 74
     0
 91
        4
 64
     7
 65
   257
 75
     1
175
     1
 42
1.0
 92
        8
 66
     7
 43
1.0
 76
     1
 77
     6
 78
     2
 67
     7
 79
     5
170
     0
171
     0
290
     0
174
     0
 93
       13
 44
0.0
173
     0
291
     1
 45
0.0
1001
ACAD
1000
AcDbSavedByObjectVersion
1070
     0
  0
VISUALSTYLE
  5
2C
102
{ACAD_REACTORS
330
2A
102
}
102
{ACAD_XDICTIONARY
360
459
102
}
330
2A
100
AcDbVisualStyle
  2
FlatWithEdges
 70
     1
 71
     2
 72
     1
 73
     1
 90
        2
 40
-0.6
 41
30.0
 62
     5
 63
     7
 74
     1
 91
        4
 64
     7
 65
   257
 75
     1
175
     1
 42
1.0
 92
        0
 66
   257
 43
1.0
 76
     1
 77
     6
 78
     2
 67
     7
 79
     5
170
     0
171
     0
290
     0
174
     0
 93
       13
 44
0.0
173
     0
291
     1
 45
0.0
1001
ACAD
1000
AcDbSavedByObjectVersion
1070
     0
  0
VISUALSTYLE
  5
2D
102
{ACAD_REACTORS
330
2A
102
}
102
{ACAD_XDICTIONARY
360
45B
102
}
330
2A
100
AcDbVisualStyle
  2
Gouraud
 70
     2
 71
     2
 72
     2
 73
     1
 90
        2
 40
-0.6
 41
30.0
 62
     5
 63
     7
 74
     0
 91
        4
 64
     7
 65
   257
 75
     1
175
     1
 42
1.0
 92
        0
 66
     7
 43
1.0
 76
     1
 77
     6
 78
     2
 67
     7
 79
     5
170
     0
171
     0
290
     0
174
     0
 93
       13
 44
0.0
173
     0
291
     1
 45
0.0
1001
ACAD
1000
AcDbSavedByObjectVersion
1070
     0
  0
VISUALSTYLE
  5
2E
102
{ACAD_REACTORS
330
2A
102
}
102
{ACAD_XDICTIONARY
360
45D
102
}
330
2A
100
AcDbVisualStyle
  2
GouraudWithEdges
 70
     3
 71
     2
 72
     2
 73
     1
 90
        2
 40
-0.6
 41
30.0
 62
     5
 63
     7
 74
     1
 91
        4
 64
     7
 65
   257
 75
     1
175
     1
 42
1.0
 92
        0
 66
   257
 43
1.0
 76
     1
 77
     6
 78
     2
 67
     7
 79
     5
170
     0
171
     0
290
     0
174
     0
 93
       13
 44
0.0
173
     0
291
     1
 45
0.0
1001
ACAD
1000
AcDbSavedByObjectVersion
1070
     0
  0
VISUALSTYLE
  5
38
102
{ACAD_REACTORS
330
2A
102
}
102
{ACAD_XDICTIONARY
360
471
102
}
330
2A
100
AcDbVisualStyle
  2
Linepattern
 70
    14
 71
     2
 72
     2
 73
     0
 90
        0
 40
-0.6
 41
-30.0
 62
     5
 63
     7
 74
     1
 91
        4
 64
     7
 65
   257
 75
     7
175
     7
 42
1.0
 92
        8
 66
     7
 43
1.0
 76
     1
 77
     6
 78
     2
 67
     7
 79
     5
170
     0
171
     0
290
     0
174
     0
 93
        1
 44
0.0
173
     0
291
     1
 45
0.0
1001
ACAD
1000
AcDbSavedByObjectVersion
1070
     0
  0
VISUALSTYLE
  5
33
102
{ACAD_REACTORS
330
2A
102
}
102
{ACAD_XDICTIONARY
360
467
102
}
330
2A
100
AcDbVisualStyle
  2
Realistic
 70
     8
 71
     2
 72
     2
 73
     0
 90
        0
 40
-0.6
 41
-30.0
 62
     5
 63
     7
 74
     1
 91
        0
 64
     7
 65
   257
 75
     1
175
     1
 42
1.0
 92
        8
 66
     8
 43
1.0
 76
     1
 77
     6
 78
     2
 67
     7
 79
     5
170
     0
171
     0
290
     0
174
     0
 93
       13
 44
0.0
173
     0
291
     0
 45
0.0
1001
ACAD
1000
AcDbSavedByObjectVersion
1070
     0
  0
VISUALSTYLE
  5
37
102
{ACAD_REACTORS
330
2A
102
}
102
{ACAD_XDICTIONARY
360
46F
102
}
330
2A
100
AcDbVisualStyle
  2
Thicken
 70
    13
 71
     2
 72
     2
 73
     0
 90
        0
 40
-0.6
 41
-30.0
 62
     5
 63
     7
 74
     1
 91
        4
 64
     7
 65
   257
 75
     1
175
     1
 42
1.0
 92
       12
 66
     7
 43
1.0
 76
     1
 77
     6
 78
     2
 67
     7
 79
     5
170
     0
171
     0
290
     0
174
     0
 93
        1
 44
0.0
173
     0
291
     1
 45
0.0
1001
ACAD
1000
AcDbSavedByObjectVersion
1070
     0
  0
DICTIONARYVAR
  5
455
102
{ACAD_REACTORS
330
452
102
}
330
452
100
DictionaryVariables
280
     0
  1
2
  0
DICTIONARYVAR
  5
456
102
{ACAD_REACTORS
330
452
102
}
330
452
100
DictionaryVariables
280
     0
  1
1
  0
DICTIONARY
  5
479
330
3D
100
AcDbDictionary
280
     1
281
     1
  3
ACAD_XREC_ROUNDTRIP
360
47A
  0
DICTIONARY
  5
477
330
3C
100
AcDbDictionary
280
     1
281
     1
  3
ACAD_XREC_ROUNDTRIP
360
478
  0
DICTIONARY
  5
47B
330
3E
100
AcDbDictionary
280
     1
281
     1
  3
ACAD_XREC_ROUNDTRIP
360
47C
  0
DICTIONARY
  5
45F
330
2F
100
AcDbDictionary
280
     1
281
     1
  3
ACAD_XREC_ROUNDTRIP
360
460
  0
DICTIONARY
  5
463
330
31
100
AcDbDictionary
280
     1
281
     1
  3
ACAD_XREC_ROUNDTRIP
360
464
  0
DICTIONARY
  5
461
330
30
100
AcDbDictionary
280
     1
281
     1
  3
ACAD_XREC_ROUNDTRIP
360
462
  0
DICTIONARY
  5
465
330
32
100
AcDbDictionary
280
     1
281
     1
  3
ACAD_XREC_ROUNDTRIP
360
466
  0
DICTIONARY
  5
46D
330
36
100
AcDbDictionary
280
     1
281
     1
  3
ACAD_XREC_ROUNDTRIP
360
46E
  0
DICTIONARY
  5
475
330
3A
100
AcDbDictionary
280
     1
281
     1
  3
ACAD_XREC_ROUNDTRIP
360
476
  0
DICTIONARY
  5
469
330
34
100
AcDbDictionary
280
     1
281
     1
  3
ACAD_XREC_ROUNDTRIP
360
46A
  0
DICTIONARY
  5
46B
330
35
100
AcDbDictionary
280
     1
281
     1
  3
ACAD_XREC_ROUNDTRIP
360
46C
  0
DICTIONARY
  5
473
330
39
100
AcDbDictionary
280
     1
281
     1
  3
ACAD_XREC_ROUNDTRIP
360
474
  0
DICTIONARY
  5
457
330
2B
100
AcDbDictionary
280
     1
281
     1
  3
ACAD_XREC_ROUNDTRIP
360
458
  0
DICTIONARY
  5
459
330
2C
100
AcDbDictionary
280
     1
281
     1
  3
ACAD_XREC_ROUNDTRIP
360
45A
  0
DICTIONARY
  5
45B
330
2D
100
AcDbDictionary
280
     1
281
     1
  3
ACAD_XREC_ROUNDTRIP
360
45C
  0
DICTIONARY
  5
45D
330
2E
100
AcDbDictionary
280
     1
281
     1
  3
ACAD_XREC_ROUNDTRIP
360
45E
  0
DICTIONARY
  5
471
330
38
100
AcDbDictionary
280
     1
281
     1
  3
ACAD_XREC_ROUNDTRIP
360
472
  0
DICTIONARY
  5
467
330
33
100
AcDbDictionary
280
     1
281
     1
  3
ACAD_XREC_ROUNDTRIP
360
468
  0
DICTIONARY
  5
46F
330
37
100
AcDbDictionary
280
     1
281
     1
  3
ACAD_XREC_ROUNDTRIP
360
470
  0
XRECORD
  5
47A
102
{ACAD_REACTORS
330
479
102
}
330
479
100
AcDbXrecord
280
     1
102
MATERIAL
148
0.0
149
0.0
149
0.0
 93
        0
 94
      127
282
     0
 72
     1
 77
     1
171
     1
175
     1
179
     1
273
     0
  0
XRECORD
  5
478
102
{ACAD_REACTORS
330
477
102
}
330
477
100
AcDbXrecord
280
     1
102
MATERIAL
148
0.0
149
0.0
149
0.0
 93
        0
 94
      127
282
     0
 72
     1
 77
     1
171
     1
175
     1
179
     1
273
     0
  0
XRECORD
  5
47C
102
{ACAD_REACTORS
330
47B
102
}
330
47B
100
AcDbXrecord
280
     1
102
MATERIAL
148
0.0
149
0.0
149
0.0
 93
        0
 94
      127
282
     0
 72
     1
 77
     1
171
     1
175
     1
179
     1
273
     0
  0
XRECORD
  5
460
102
{ACAD_REACTORS
330
45F
102
}
330
45F
100
AcDbXrecord
280
     1
102
RTVSPropertyOp0
 70
     1
102
RTVSPropertyOp1
 70
     1
102
RTVSPropertyOp2
 70
     1
102
RTVSPropertyOp3
 70
     1
102
RTVSPropertyOp4
 70
     1
102
RTVSPropertyOp5
 70
     1
102
RTVSPropertyOp6
 70
     1
102
RTVSPropertyOp7
 70
     1
102
RTVSPropertyOp8
 70
     1
102
RTVSPropertyOp9
 70
     1
102
RTVSPropertyOp10
 70
     1
102
RTVSPropertyOp11
 70
     1
102
RTVSPropertyOp12
 70
     1
102
RTVSPropertyOp13
 70
     1
102
RTVSPropertyOp14
 70
     1
102
RTVSPropertyOp15
 70
     1
102
RTVSPropertyOp16
 70
     1
102
RTVSPropertyOp17
 70
     1
102
RTVSPropertyOp18
 70
     1
102
RTVSPropertyOp19
 70
     1
102
RTVSPropertyOp20
 70
     1
102
RTVSPropertyOp21
 70
     1
102
RTVSPropertyOp22
 70
     1
102
RTVSPropertyOp23
 70
     1
102
RTVSPropertyOp24
 70
     1
102
RTVSPropertyOp25
 70
     1
102
RTVSPropertyOp26
 70
     1
102
RTVSPropertyOp27
 70
     1
  0
XRECORD
  5
464
102
{ACAD_REACTORS
330
463
102
}
330
463
100
AcDbXrecord
280
     1
102
RTVSPropertyOp0
 70
     1
102
RTVSPropertyOp1
 70
     1
102
RTVSPropertyOp2
 70
     1
102
RTVSPropertyOp3
 70
     1
102
RTVSPropertyOp4
 70
     1
102
RTVSPropertyOp5
 70
     1
102
RTVSPropertyOp6
 70
     1
102
RTVSPropertyOp7
 70
     1
102
RTVSPropertyOp8
 70
     1
102
RTVSPropertyOp9
 70
     1
102
RTVSPropertyOp10
 70
     1
102
RTVSPropertyOp11
 70
     1
102
RTVSPropertyOp12
 70
     1
102
RTVSPropertyOp13
 70
     1
102
RTVSPropertyOp14
 70
     1
102
RTVSPropertyOp15
 70
     1
102
RTVSPropertyOp16
 70
     1
102
RTVSPropertyOp17
 70
     1
102
RTVSPropertyOp18
 70
     1
102
RTVSPropertyOp19
 70
     1
102
RTVSPropertyOp20
 70
     1
102
RTVSPropertyOp21
 70
     1
102
RTVSPropertyOp22
 70
     1
102
RTVSPropertyOp23
 70
     1
102
RTVSPropertyOp24
 70
     1
102
RTVSPropertyOp25
 70
     1
102
RTVSPropertyOp26
 70
     1
102
RTVSPropertyOp27
 70
     1
  0
XRECORD
  5
462
102
{ACAD_REACTORS
330
461
102
}
330
461
100
AcDbXrecord
280
     1
102
RTVSPropertyOp0
 70
     1
102
RTVSPropertyOp1
 70
     1
102
RTVSPropertyOp2
 70
     1
102
RTVSPropertyOp3
 70
     1
102
RTVSPropertyOp4
 70
     1
102
RTVSPropertyOp5
 70
     1
102
RTVSPropertyOp6
 70
     1
102
RTVSPropertyOp7
 70
     1
102
RTVSPropertyOp8
 70
     1
102
RTVSPropertyOp9
 70
     1
102
RTVSPropertyOp10
 70
     1
102
RTVSPropertyOp11
 70
     1
102
RTVSPropertyOp12
 70
     1
102
RTVSPropertyOp13
 70
     1
102
RTVSPropertyOp14
 70
     1
102
RTVSPropertyOp15
 70
     1
102
RTVSPropertyOp16
 70
     1
102
RTVSPropertyOp17
 70
     1
102
RTVSPropertyOp18
 70
     1
102
RTVSPropertyOp19
 70
     1
102
RTVSPropertyOp20
 70
     1
102
RTVSPropertyOp21
 70
     1
102
RTVSPropertyOp22
 70
     1
102
RTVSPropertyOp23
 70
     1
102
RTVSPropertyOp24
 70
     1
102
RTVSPropertyOp25
 70
     1
102
RTVSPropertyOp26
 70
     1
102
RTVSPropertyOp27
 70
     1
  0
XRECORD
  5
466
102
{ACAD_REACTORS
330
465
102
}
330
465
100
AcDbXrecord
280
     1
102
RTVSPropertyOp0
 70
     1
102
RTVSPropertyOp1
 70
     1
102
RTVSPropertyOp2
 70
     1
102
RTVSPropertyOp3
 70
     1
102
RTVSPropertyOp4
 70
     1
102
RTVSPropertyOp5
 70
     1
102
RTVSPropertyOp6
 70
     1
102
RTVSPropertyOp7
 70
     1
102
RTVSPropertyOp8
 70
     1
102
RTVSPropertyOp9
 70
     1
102
RTVSPropertyOp10
 70
     1
102
RTVSPropertyOp11
 70
     1
102
RTVSPropertyOp12
 70
     1
102
RTVSPropertyOp13
 70
     1
102
RTVSPropertyOp14
 70
     1
102
RTVSPropertyOp15
 70
     1
102
RTVSPropertyOp16
 70
     1
102
RTVSPropertyOp17
 70
     1
102
RTVSPropertyOp18
 70
     1
102
RTVSPropertyOp19
 70
     1
102
RTVSPropertyOp20
 70
     1
102
RTVSPropertyOp21
 70
     1
102
RTVSPropertyOp22
 70
     1
102
RTVSPropertyOp23
 70
     1
102
RTVSPropertyOp24
 70
     1
102
RTVSPropertyOp25
 70
     1
102
RTVSPropertyOp26
 70
     1
102
RTVSPropertyOp27
 70
     1
  0
XRECORD
  5
46E
102
{ACAD_REACTORS
330
46D
102
}
330
46D
100
AcDbXrecord
280
     1
102
RTVSPropertyOp0
 70
     1
102
RTVSPropertyOp1
 70
     1
102
RTVSPropertyOp2
 70
     1
102
RTVSPropertyOp3
 70
     1
102
RTVSPropertyOp4
 70
     1
102
RTVSPropertyOp5
 70
     1
102
RTVSPropertyOp6
 70
     1
102
RTVSPropertyOp7
 70
     1
102
RTVSPropertyOp8
 70
     1
102
RTVSPropertyOp9
 70
     1
102
RTVSPropertyOp10
 70
     1
102
RTVSPropertyOp11
 70
     1
102
RTVSPropertyOp12
 70
     1
102
RTVSPropertyOp13
 70
     1
102
RTVSPropertyOp14
 70
     1
102
RTVSPropertyOp15
 70
     1
102
RTVSPropertyOp16
 70
     1
102
RTVSPropertyOp17
 70
     1
102
RTVSPropertyOp18
 70
     1
102
RTVSPropertyOp19
 70
     1
102
RTVSPropertyOp20
 70
     1
102
RTVSPropertyOp21
 70
     1
102
RTVSPropertyOp22
 70
     1
102
RTVSPropertyOp23
 70
     1
102
RTVSPropertyOp24
 70
     1
102
RTVSPropertyOp25
 70
     1
102
RTVSPropertyOp26
 70
     1
102
RTVSPropertyOp27
 70
     1
  0
XRECORD
  5
476
102
{ACAD_REACTORS
330
475
102
}
330
475
100
AcDbXrecord
280
     1
102
RTVSPropertyOp0
 70
     1
102
RTVSPropertyOp1
 70
     1
102
RTVSPropertyOp2
 70
     1
102
RTVSPropertyOp3
 70
     1
102
RTVSPropertyOp4
 70
     1
102
RTVSPropertyOp5
 70
     1
102
RTVSPropertyOp6
 70
     1
102
RTVSPropertyOp7
 70
     1
102
RTVSPropertyOp8
 70
     1
102
RTVSPropertyOp9
 70
     1
102
RTVSPropertyOp10
 70
     1
102
RTVSPropertyOp11
 70
     1
102
RTVSPropertyOp12
 70
     1
102
RTVSPropertyOp13
 70
     1
102
RTVSPropertyOp14
 70
     1
102
RTVSPropertyOp15
 70
     1
102
RTVSPropertyOp16
 70
     1
102
RTVSPropertyOp17
 70
     1
102
RTVSPropertyOp18
 70
     1
102
RTVSPropertyOp19
 70
     1
102
RTVSPropertyOp20
 70
     1
102
RTVSPropertyOp21
 70
     1
102
RTVSPropertyOp22
 70
     1
102
RTVSPropertyOp23
 70
     1
102
RTVSPropertyOp24
 70
     1
102
RTVSPropertyOp25
 70
     1
102
RTVSPropertyOp26
 70
     1
102
RTVSPropertyOp27
 70
     1
  0
XRECORD
  5
46A
102
{ACAD_REACTORS
330
469
102
}
330
469
100
AcDbXrecord
280
     1
102
RTVSPropertyOp0
 70
     1
102
RTVSPropertyOp1
 70
     1
102
RTVSPropertyOp2
 70
     1
102
RTVSPropertyOp3
 70
     1
102
RTVSPropertyOp4
 70
     1
102
RTVSPropertyOp5
 70
     1
102
RTVSPropertyOp6
 70
     1
102
RTVSPropertyOp7
 70
     1
102
RTVSPropertyOp8
 70
     1
102
RTVSPropertyOp9
 70
     1
102
RTVSPropertyOp10
 70
     1
102
RTVSPropertyOp11
 70
     1
102
RTVSPropertyOp12
 70
     1
102
RTVSPropertyOp13
 70
     1
102
RTVSPropertyOp14
 70
     1
102
RTVSPropertyOp15
 70
     1
102
RTVSPropertyOp16
 70
     1
102
RTVSPropertyOp17
 70
     1
102
RTVSPropertyOp18
 70
     1
102
RTVSPropertyOp19
 70
     1
102
RTVSPropertyOp20
 70
     1
102
RTVSPropertyOp21
 70
     1
102
RTVSPropertyOp22
 70
     1
102
RTVSPropertyOp23
 70
     1
102
RTVSPropertyOp24
 70
     1
102
RTVSPropertyOp25
 70
     1
102
RTVSPropertyOp26
 70
     1
102
RTVSPropertyOp27
 70
     1
  0
XRECORD
  5
46C
102
{ACAD_REACTORS
330
46B
102
}
330
46B
100
AcDbXrecord
280
     1
102
RTVSPropertyOp0
 70
     1
102
RTVSPropertyOp1
 70
     1
102
RTVSPropertyOp2
 70
     1
102
RTVSPropertyOp3
 70
     1
102
RTVSPropertyOp4
 70
     1
102
RTVSPropertyOp5
 70
     1
102
RTVSPropertyOp6
 70
     1
102
RTVSPropertyOp7
 70
     1
102
RTVSPropertyOp8
 70
     1
102
RTVSPropertyOp9
 70
     1
102
RTVSPropertyOp10
 70
     1
102
RTVSPropertyOp11
 70
     1
102
RTVSPropertyOp12
 70
     1
102
RTVSPropertyOp13
 70
     1
102
RTVSPropertyOp14
 70
     1
102
RTVSPropertyOp15
 70
     1
102
RTVSPropertyOp16
 70
     1
102
RTVSPropertyOp17
 70
     1
102
RTVSPropertyOp18
 70
     1
102
RTVSPropertyOp19
 70
     1
102
RTVSPropertyOp20
 70
     1
102
RTVSPropertyOp21
 70
     1
102
RTVSPropertyOp22
 70
     1
102
RTVSPropertyOp23
 70
     1
102
RTVSPropertyOp24
 70
     1
102
RTVSPropertyOp25
 70
     1
102
RTVSPropertyOp26
 70
     1
102
RTVSPropertyOp27
 70
     1
  0
XRECORD
  5
474
102
{ACAD_REACTORS
330
473
102
}
330
473
100
AcDbXrecord
280
     1
102
RTVSPropertyOp0
 70
     1
102
RTVSPropertyOp1
 70
     1
102
RTVSPropertyOp2
 70
     1
102
RTVSPropertyOp3
 70
     1
102
RTVSPropertyOp4
 70
     1
102
RTVSPropertyOp5
 70
     1
102
RTVSPropertyOp6
 70
     1
102
RTVSPropertyOp7
 70
     1
102
RTVSPropertyOp8
 70
     1
102
RTVSPropertyOp9
 70
     1
102
RTVSPropertyOp10
 70
     1
102
RTVSPropertyOp11
 70
     1
102
RTVSPropertyOp12
 70
     1
102
RTVSPropertyOp13
 70
     1
102
RTVSPropertyOp14
 70
     1
102
RTVSPropertyOp15
 70
     1
102
RTVSPropertyOp16
 70
     1
102
RTVSPropertyOp17
 70
     1
102
RTVSPropertyOp18
 70
     1
102
RTVSPropertyOp19
 70
     1
102
RTVSPropertyOp20
 70
     1
102
RTVSPropertyOp21
 70
     1
102
RTVSPropertyOp22
 70
     1
102
RTVSPropertyOp23
 70
     1
102
RTVSPropertyOp24
 70
     1
102
RTVSPropertyOp25
 70
     1
102
RTVSPropertyOp26
 70
     1
102
RTVSPropertyOp27
 70
     1
  0
XRECORD
  5
458
102
{ACAD_REACTORS
330
457
102
}
330
457
100
AcDbXrecord
280
     1
102
RTVSPropertyOp0
 70
     1
102
RTVSPropertyOp1
 70
     1
102
RTVSPropertyOp2
 70
     1
102
RTVSPropertyOp3
 70
     1
102
RTVSPropertyOp4
 70
     1
102
RTVSPropertyOp5
 70
     1
102
RTVSPropertyOp6
 70
     1
102
RTVSPropertyOp7
 70
     1
102
RTVSPropertyOp8
 70
     1
102
RTVSPropertyOp9
 70
     1
102
RTVSPropertyOp10
 70
     1
102
RTVSPropertyOp11
 70
     1
102
RTVSPropertyOp12
 70
     1
102
RTVSPropertyOp13
 70
     1
102
RTVSPropertyOp14
 70
     1
102
RTVSPropertyOp15
 70
     1
102
RTVSPropertyOp16
 70
     1
102
RTVSPropertyOp17
 70
     1
102
RTVSPropertyOp18
 70
     1
102
RTVSPropertyOp19
 70
     1
102
RTVSPropertyOp20
 70
     1
102
RTVSPropertyOp21
 70
     1
102
RTVSPropertyOp22
 70
     1
102
RTVSPropertyOp23
 70
     1
102
RTVSPropertyOp24
 70
     1
102
RTVSPropertyOp25
 70
     1
102
RTVSPropertyOp26
 70
     1
102
RTVSPropertyOp27
 70
     1
  0
XRECORD
  5
45A
102
{ACAD_REACTORS
330
459
102
}
330
459
100
AcDbXrecord
280
     1
102
RTVSPropertyOp0
 70
     1
102
RTVSPropertyOp1
 70
     1
102
RTVSPropertyOp2
 70
     1
102
RTVSPropertyOp3
 70
     1
102
RTVSPropertyOp4
 70
     1
102
RTVSPropertyOp5
 70
     1
102
RTVSPropertyOp6
 70
     1
102
RTVSPropertyOp7
 70
     1
102
RTVSPropertyOp8
 70
     1
102
RTVSPropertyOp9
 70
     1
102
RTVSPropertyOp10
 70
     1
102
RTVSPropertyOp11
 70
     1
102
RTVSPropertyOp12
 70
     1
102
RTVSPropertyOp13
 70
     1
102
RTVSPropertyOp14
 70
     1
102
RTVSPropertyOp15
 70
     1
102
RTVSPropertyOp16
 70
     1
102
RTVSPropertyOp17
 70
     1
102
RTVSPropertyOp18
 70
     1
102
RTVSPropertyOp19
 70
     1
102
RTVSPropertyOp20
 70
     1
102
RTVSPropertyOp21
 70
     1
102
RTVSPropertyOp22
 70
     1
102
RTVSPropertyOp23
 70
     1
102
RTVSPropertyOp24
 70
     1
102
RTVSPropertyOp25
 70
     1
102
RTVSPropertyOp26
 70
     1
102
RTVSPropertyOp27
 70
     1
  0
XRECORD
  5
45C
102
{ACAD_REACTORS
330
45B
102
}
330
45B
100
AcDbXrecord
280
     1
102
RTVSPropertyOp0
 70
     1
102
RTVSPropertyOp1
 70
     1
102
RTVSPropertyOp2
 70
     1
102
RTVSPropertyOp3
 70
     1
102
RTVSPropertyOp4
 70
     1
102
RTVSPropertyOp5
 70
     1
102
RTVSPropertyOp6
 70
     1
102
RTVSPropertyOp7
 70
     1
102
RTVSPropertyOp8
 70
     1
102
RTVSPropertyOp9
 70
     1
102
RTVSPropertyOp10
 70
     1
102
RTVSPropertyOp11
 70
     1
102
RTVSPropertyOp12
 70
     1
102
RTVSPropertyOp13
 70
     1
102
RTVSPropertyOp14
 70
     1
102
RTVSPropertyOp15
 70
     1
102
RTVSPropertyOp16
 70
     1
102
RTVSPropertyOp17
 70
     1
102
RTVSPropertyOp18
 70
     1
102
RTVSPropertyOp19
 70
     1
102
RTVSPropertyOp20
 70
     1
102
RTVSPropertyOp21
 70
     1
102
RTVSPropertyOp22
 70
     1
102
RTVSPropertyOp23
 70
     1
102
RTVSPropertyOp24
 70
     1
102
RTVSPropertyOp25
 70
     1
102
RTVSPropertyOp26
 70
     1
102
RTVSPropertyOp27
 70
     1
  0
XRECORD
  5
45E
102
{ACAD_REACTORS
330
45D
102
}
330
45D
100
AcDbXrecord
280
     1
102
RTVSPropertyOp0
 70
     1
102
RTVSPropertyOp1
 70
     1
102
RTVSPropertyOp2
 70
     1
102
RTVSPropertyOp3
 70
     1
102
RTVSPropertyOp4
 70
     1
102
RTVSPropertyOp5
 70
     1
102
RTVSPropertyOp6
 70
     1
102
RTVSPropertyOp7
 70
     1
102
RTVSPropertyOp8
 70
     1
102
RTVSPropertyOp9
 70
     1
102
RTVSPropertyOp10
 70
     1
102
RTVSPropertyOp11
 70
     1
102
RTVSPropertyOp12
 70
     1
102
RTVSPropertyOp13
 70
     1
102
RTVSPropertyOp14
 70
     1
102
RTVSPropertyOp15
 70
     1
102
RTVSPropertyOp16
 70
     1
102
RTVSPropertyOp17
 70
     1
102
RTVSPropertyOp18
 70
     1
102
RTVSPropertyOp19
 70
     1
102
RTVSPropertyOp20
 70
     1
102
RTVSPropertyOp21
 70
     1
102
RTVSPropertyOp22
 70
     1
102
RTVSPropertyOp23
 70
     1
102
RTVSPropertyOp24
 70
     1
102
RTVSPropertyOp25
 70
     1
102
RTVSPropertyOp26
 70
     1
102
RTVSPropertyOp27
 70
     1
  0
XRECORD
  5
472
102
{ACAD_REACTORS
330
471
102
}
330
471
100
AcDbXrecord
280
     1
102
RTVSPropertyOp0
 70
     1
102
RTVSPropertyOp1
 70
     1
102
RTVSPropertyOp2
 70
     1
102
RTVSPropertyOp3
 70
     1
102
RTVSPropertyOp4
 70
     1
102
RTVSPropertyOp5
 70
     1
102
RTVSPropertyOp6
 70
     1
102
RTVSPropertyOp7
 70
     1
102
RTVSPropertyOp8
 70
     1
102
RTVSPropertyOp9
 70
     1
102
RTVSPropertyOp10
 70
     1
102
RTVSPropertyOp11
 70
     1
102
RTVSPropertyOp12
 70
     1
102
RTVSPropertyOp13
 70
     1
102
RTVSPropertyOp14
 70
     1
102
RTVSPropertyOp15
 70
     1
102
RTVSPropertyOp16
 70
     1
102
RTVSPropertyOp17
 70
     1
102
RTVSPropertyOp18
 70
     1
102
RTVSPropertyOp19
 70
     1
102
RTVSPropertyOp20
 70
     1
102
RTVSPropertyOp21
 70
     1
102
RTVSPropertyOp22
 70
     1
102
RTVSPropertyOp23
 70
     1
102
RTVSPropertyOp24
 70
     1
102
RTVSPropertyOp25
 70
     1
102
RTVSPropertyOp26
 70
     1
102
RTVSPropertyOp27
 70
     1
  0
XRECORD
  5
468
102
{ACAD_REACTORS
330
467
102
}
330
467
100
AcDbXrecord
280
     1
102
RTVSPropertyOp0
 70
     1
102
RTVSPropertyOp1
 70
     1
102
RTVSPropertyOp2
 70
     1
102
RTVSPropertyOp3
 70
     1
102
RTVSPropertyOp4
 70
     1
102
RTVSPropertyOp5
 70
     1
102
RTVSPropertyOp6
 70
     1
102
RTVSPropertyOp7
 70
     1
102
RTVSPropertyOp8
 70
     1
102
RTVSPropertyOp9
 70
     1
102
RTVSPropertyOp10
 70
     1
102
RTVSPropertyOp11
 70
     1
102
RTVSPropertyOp12
 70
     1
102
RTVSPropertyOp13
 70
     1
102
RTVSPropertyOp14
 70
     1
102
RTVSPropertyOp15
 70
     1
102
RTVSPropertyOp16
 70
     1
102
RTVSPropertyOp17
 70
     1
102
RTVSPropertyOp18
 70
     1
102
RTVSPropertyOp19
 70
     1
102
RTVSPropertyOp20
 70
     1
102
RTVSPropertyOp21
 70
     1
102
RTVSPropertyOp22
 70
     1
102
RTVSPropertyOp23
 70
     1
102
RTVSPropertyOp24
 70
     1
102
RTVSPropertyOp25
 70
     1
102
RTVSPropertyOp26
 70
     1
102
RTVSPropertyOp27
 70
     1
  0
XRECORD
  5
470
102
{ACAD_REACTORS
330
46F
102
}
330
46F
100
AcDbXrecord
280
     1
102
RTVSPropertyOp0
 70
     1
102
RTVSPropertyOp1
 70
     1
102
RTVSPropertyOp2
 70
     1
102
RTVSPropertyOp3
 70
     1
102
RTVSPropertyOp4
 70
     1
102
RTVSPropertyOp5
 70
     1
102
RTVSPropertyOp6
 70
     1
102
RTVSPropertyOp7
 70
     1
102
RTVSPropertyOp8
 70
     1
102
RTVSPropertyOp9
 70
     1
102
RTVSPropertyOp10
 70
     1
102
RTVSPropertyOp11
 70
     1
102
RTVSPropertyOp12
 70
     1
102
RTVSPropertyOp13
 70
     1
102
RTVSPropertyOp14
 70
     1
102
RTVSPropertyOp15
 70
     1
102
RTVSPropertyOp16
 70
     1
102
RTVSPropertyOp17
 70
     1
102
RTVSPropertyOp18
 70
     1
102
RTVSPropertyOp19
 70
     1
102
RTVSPropertyOp20
 70
     1
102
RTVSPropertyOp21
 70
     1
102
RTVSPropertyOp22
 70
     1
102
RTVSPropertyOp23
 70
     1
102
RTVSPropertyOp24
 70
     1
102
RTVSPropertyOp25
 70
     1
102
RTVSPropertyOp26
 70
     1
102
RTVSPropertyOp27
 70
     1
  0
ENDSEC
  0
EOF
